Barenaked Ladies - For You Chords & Tabs

 

For You Chords & Tabs

Barenaked Ladies Chords & Tabs

Version: 1 Type: Tab 1 rating
1 star 2 stars 3 stars 4 stars 5 stars
comments

For You Tab

Tabber: Quinn Olson
myfriendquon@hotmail.com
Barenaked Ladies
For You
Intro/Verse(x2)/Instrumental 
E-------------------------------------------------|
B-------------------------------------------------|
G-0-2-4-4p2p0-2-4-2-0-2-4-----0-2-4-4p2p0-2-4-2-0-|
D-------------------------------------------------|
A-------------------------------------------------|
E-------------------------------------------------|
[ Tab from: http://www.guitartabs.cc/tabs/b/barenaked_ladies/for_you_tab.html ]
Chorus 
E-------------------------------------------------|
B-----5-5-3--------------3-5-5-3------------------|
G-0-4-------4-2-0-2-4--4--------4-2-0-------------|
D-------------------------------------------------|
A-------------------------------------------------|
E-------------------------------------------------|

E-------------------------------------------------|
B-----5-5-3--------------3-5-5-3------------------|
G-0-4-------4-2-0-2-4--4--------4-2---0h2h4p2-----|
D-------------------------------------------------|
A-------------------------------------------------|
E-------------------------------------------------|
Comments