Barenaked Ladies - Be My Yoko Ono Chords & Tabs

 

Be My Yoko Ono Chords & Tabs

Barenaked Ladies Chords & Tabs

Version: 2 Type: Tab 0 ratings
1 star 2 stars 3 stars 4 stars 5 stars
comments

Be My Yoko Ono Tab

   
-------------------------------------------------------------------------------
			  BE MY YOKO ONO - Barenaked Ladies
-------------------------------------------------------------------------------
Tabbed by: Barry Miles
Email: shoebox_of_lies@hotmail.com 

Tuning: Capo on 5th fret

Intro/Chorus

e|------0----------0-----1----1--------3-3-3-|
B|-1--1-1-1---0--0-0-0---1--1-1-1---0--0-3-0-|
G|-0--0-0-0---1--1-1-1---2--2-2-2---0--0-0-0-|
D|-2--2-2-2---2--2-2-2---3--3-3-3---0--0-0-0-|
A|-3----------2--2-0-0---3----------2--------|
E|------------0---------------------3--------|

Verse

e|-0------0------1------3------|
B|-1------0------1------3------|
G|-0------1------2------0------|
D|-2------2------3------0------|
A|-3------2------3------2------|
E|--------0-------------3------|

Bridge
[ Tab from: http://www.guitartabs.cc/tabs/b/barenaked_ladies/be_my_yoko_ono_tab_ver_2.html ]
e|-1----1--------3-3-3-------0----------0---|
B|-1--1-1-1---0--0-3-0--1--1-1-1---0--0-0-0-|
G|-2--2-2-2---0--0-0-0--0--0-0-0---1--1-1-1-|
D|-3--3-3-3---0--0-0-0--2--2-2-2---2--2-2-2-|
A|-3----------2---------3----------2--2-0-0-|
E|------------3--------------------0--------|

e|-1----1--------3-3-3-------0--------------|
B|-1--1-1-1---0--0-3-0--1--1-1-1---0--------|
G|-2--2-2-2---0--0-0-0--0--0-0-0---1--------|
D|-3--3-3-3---0--0-0-0--2--2-2-2---0--------|
A|-3----------2---------3----------2--------|
E|------------3--------------------0--------|

Itís simple, pretty much the same chords and rhythm over and over,
but at least the capo on 5th gives it a more distinct sound.

| /  slide up
| \  slide down
| h  hammer-on
| p  pull-off
| ~  vibrato
| +  harmonic
| x  Mute note
===============================================================================

Comments