Barenaked Ladies - Another Postcard Chords & Tabs

 

Another Postcard Chords & Tabs

Barenaked Ladies Chords & Tabs

Version: 1 Type: Tab 0 ratings
1 star 2 stars 3 stars 4 stars 5 stars
comments

Another Postcard Tab

intro

e -4-4--5-5--2-2--7-7---
b --5-5--5-5--2-2--7-7--
g ----------------------    x3
d ----------------------
a ----------------------
e ----------------------

e ------------------
b ------------------
g ------------------  x2 pause after each time
d -6-6--------------
a -4-4-7-7----------
e -----5-5----------



[ Tab from: http://www.guitartabs.cc/tabs/b/barenaked_ladies/another_postcard_tab.html ]
e -4-4--5-5--2-2--5-5---
b --5-5--5-5--2-2--5-5--
g ----------------------    
d ----------------------  x2 pick the strings
a ----------------------
e ----------------------




chorus-guitar 1

e ----------------------------------
b ----------------------------------
g ----------------------------------
d -6-6-6-6--7-7-7-7--4-4-4-4-7-7-7-7 x6
a -4-4-4-4--7-7-7-7--4-4-4-4-7-7-7-7
e ----------5-5-5-5--2-2-2-2-5-5-5-5

guitar 2 they play at the same time

e -4-4--5-5--2-2--5-5---
b --5-5--5-5--2-2--5-5--
g ----------------------    
d ----------------------  x6
a ----------------------
e ----------------------



thats about it
Comments