Barenaked Ladies - All Been Done Chords & Tabs

 

All Been Done Chords & Tabs

Barenaked Ladies Chords & Tabs

Version: 2 Type: Bass Tab 0 ratings
1 star 2 stars 3 stars 4 stars 5 stars
comments

All Been Done Bass Tab

   
  BTAB: All Been Done
Artist: Barenaked Ladies
 Album: Stunt
Author: Rattman (jratt0@hotmail.com)

**Padrino's Bass Tab Exclusive!**

Theres a lot of improvising in this song and its an upright bass so you can't
hit some of those in-between fret notes.

Intro/Verse:
G-----------------
D-----------------
A-0-0-2-2---------
E---------3-3-3-5-

Pre-Chorus
G---------------------------
D-0-0-0---------------------
A---------0-2-2-2-2-2-2/5\3-
E-------2-------------------
[ Tab from: http://www.guitartabs.cc/tabs/b/barenaked_ladies/all_been_done_btab_ver_2.html ]
Chorus:
G----------------------------------------------------------------------------
D---------------------------------------------2-2-2-2-2----------------------
A---------2-2-2---------5-5---5---------2-2-2-----------/4-4-4-4-4-4-4-4-4-4-
E-3-3-0-3-------3-3-0-3-----5---3-3-0-3--------------------------------------

"If I put my..."
G-7-7-7-7-7-7-7-7-7-7-7-7-7-7-7-7--------------------------------------------
D---------------------------------5-5-5-5-5-5-/7-7-7-7-7-/9-9-9-9-9-/12-12-12
A----------------------------------------------------------------------------
E----------------------------------------------------------------------------


"30th century night..."
G---------------------------------------------------------------------------
D---------------------------------------------------------------------------
A-0/12-12-12-12-12-12-12-12-12-12-12-12-12-12-12-12-10-10-10-10-10-10-10-10-
E---------------------------------------------------------------------------

Taken from Padrino's Bass Tab Archive: http://members.xoom.com/jszalma/
Comments