Bare Egil Band - Arne Chords & Tabs

 

Arne Chords & Tabs

Bare Egil Band Chords & Tabs

Version: 1 Type: Tab 0 ratings
1 star 2 stars 3 stars 4 stars 5 stars
comments

Arne Tab

Author/Artist: Bare Egil Band
Title: Arne
Transcribed by: Harald Hveem
Email: ace_ventuora@hotmail.com


INTRO:        1x
|------------------------------|
|----1-1----1-1----1-1----1-1--|
|----0-0----0-0----0-0----0-0--| 
|---------2-------------2------|
|--3-------------3-------------|
|------------------------------|
                                                                              
[ Tab from: http://www.guitartabs.cc/tabs/b/bare_egil_band/arne_tab.html ]
Part1:                        6x (6th time, don't play second half)
|------------------------------|------------------------------|
|----1-1-----------------------|----1-1------------------3-3--|
|----0-0----2-2----4-4----2-2--|----0-0----2-2----4-4----4-4--|
|-----------3-3----5-5----3-3--|-----------3-3----5-5---------|
|--3---------------------------|--3--------------------5------|
|---------1------3------1------|---------1------3-------------|
                           
                                                   
Part2:             8x (8th time, don't play the last one, skip to 1)
|-------------------------|---------| |-----|
|o------------------------|--------o| |-----|
|-----1-1----1-1-----2-2--|----2-2--| |-----|
|-----2-2----2-2-----3-3--|----3-3--| |-----|
|o---------2--------------|--3-----o| |-----|
|---0-------------1-------|---------| |--1--|
 

Part3:                         6x (6th time, don't play second half)
|------------------------------|------------------------------|
|----1-1-----------------------|----1-1------------------3-3--|
|----0-0----2-2----4-4----2-2--|----0-0----2-2----4-4----4-4--|
|-----------3-3----5-5----3-3--|-----------3-3----5-5---------|
|--3---------------------------|--3--------------------5------|
|---------1------3------1------|---------1------3-------------|
    
                                                                          
End:
|-------|
|-------|
|--5-5--|
|--5-5--|
|--3-3--|
|-------|
                                                                              

Part3 is not played like Part1, as writen, but this sounds right.
If you want to have it exactly as the live version of this song,
switch places of the two parts, or its somthing like that. He plays 
The first and the second half of Part3 in random order.

:) Rate? :)
Comments