Barbies Cradle - Tabing Ilog Chords & Tabs

 

Tabing Ilog Chords & Tabs

Barbies Cradle Chords & Tabs

Version: 1 Type: Bass Tab 0 ratings
1 star 2 stars 3 stars 4 stars 5 stars
comments

Tabing Ilog Bass Tab

                          Tabing Ilog 
                        Barbie's Cradle

Intro:
|-----9-------4-|-----9-\-----4-|-----------------|------------------|
|-7-------2-----|-7-------2-----|-----2-----------|-----2------------|
|---------------|---------------|-0-------0-----2-|-0------0---0-2---|
|---------------|---------------|-----------0-----|-----------0----0-|

Verse:
|-------------------|---------------|---------------|----------------|
|-----2-------------|-----2-\-------|-----2---------|-----2----------|
|-0-----0h2-----2-/-|-0-----------2-|-0-----------2-|-0-----0------2-|
|-----------0-------|---------0-----|---------0-----|---------0-0----|

|----------------|---------------|-----------------|-----------------|
|-----2----------|-----2---------|-----2-----------|-----2h4---------|
|-0------0-----2-|-0-----------2-|-0-----0h2-----2-|-0-0-----0-0-----|
|----------0-----|---------0-----|-----------0-----|------------4-2-0|

Chorus:
|----------------|--------------|-6--6-----|-----------|
|-----4--4-------|--------------|------2s4-|-----2h4p2-|
|------------0-2-|--------------|----------|-0---------|
|-2--------2-----|-0--0-(2)/(4)-|----------|-----------|

|--------------|-------|
|--------------|-9-----|
|--------------|-------|
|-2---2-2--2/-|-----7-|
[ Tab from: http://www.guitartabs.cc/tabs/b/barbies_cradle/tabing_ilog_btab.html ]
Interlude:
|---------------|-----------------|
|-----2---------|-----2---------2-|
|-0-----------2-|-0-------0-------|
|---------0-----|-----------0-----|

Verse:
|---------------|---------------|------------------|-----------------|
|-----2---------|-----2---------|-----2------------|-----2-----------|
|-0-----------2-|-0-----------2-|-0------0h2-----2-|-0------0h2----2-|
|---------0-----|---------0-----|------------0-----|------------0----|

|-------------------|------------------|-----------------------------|
|-----2-------------|-----2------------|-----2----------6-7-6-\4-2-2-|
|-0-----------22/7-|-0------0h2-----2-|-0------0h2---7--------------|
|--------0----------|-----------0------|------------0----------------|

|-----------------------------|
|-----7----7------7-----------|
|-0------7---0--7-------------|
|-------------------5b7-4-2-0-|

Repeat Chorus



Coda:
|-----------------|----------------------|------------------------|
|-----20h2-------|-----2-0h2------------|------14--------------9-|
|-0-------------2-|-0-------------22/12-|-12--------12h14--7-7---|
|-----------0-----|-----------0----------|------------------------|

|-------|---------------------|------9-11-13/14-13-9/11-9------|
|---9---|------14-----------9-|-9-11----------------------9/11-|
|-7---7-|-12-------14---7-----|--------------------------------|
|-------|---------------------|--------------------------------|

Whew! That's as good as it gets. I hope you'll figure out the timing
cause it's quite smooth and gradual. Music is life.

Tabbed by: Joaquin Alvarado
Comments