Barbies Cradle - Playing In The Fields Chords & Tabs

 

Playing In The Fields Chords & Tabs

Barbies Cradle Chords & Tabs

Version: 1 Type: Tab 0 ratings
1 star 2 stars 3 stars 4 stars 5 stars
comments

Playing In The Fields Tab

Song: Playing in the Fields
Artist: Barbie's Cradle



1st Verse

e|---------0---------------0------------------0------------------
b|-------3---------------3------------------1--------------------          
g|-----0---------------0------------------2----------------------         
d|---------------------------------------------------------------          
a|--3---------------3------------------0-------------------------         
e|---------------------------------------------------------------  
        

e|--------3----------------3------------------0------------------
b|------0----------------1------------------1--------------------          
g|----0----------------2------------------2----------------------         
d|---------------------------------------------------------------          
a|-----------------0------------------0--------------------------         
e|-3-------------------------------------------------------------

e|--------0------------0---0-------------------------------------
b|------1------------3---3---------------------------------------          
g|----2----------------------------------------------------------         
d|---------------------------------------------------------------          
a|-0-------------------------------------------------------------         
e|--------------------------------------------------------------- 
[ Tab from: http://www.guitartabs.cc/tabs/b/barbies_cradle/playing_in_the_fields_tab.html ]
e|---------0---------------0------------------0------------------
b|-------3---------------3------------------1--------------------          
g|-----0---------------0------------------2----------------------         
d|---------------------------------------------------------------          
a|--3---------------3------------------0-------------------------         
e|---------------------------------------------------------------  
        

e|--------3----------------3------------------3------------------
b|------0----------------1------------------1--------------------          
g|----0----------------2------------------2----------------------         
d|---------------------------------------------------------------        
a|-----------------0------------------0--------------------------         
e|-3-------------------------------------------------------------

e|---------0--------------0-----------0-------------0------------
b|-------1--------------1-----------1-------------1--------------
g|-----2--------------2-----------2-------------2----------------         
d|---------------------------------------------------------------      
a|-0--------------0-----------0-------------0--------------------         
e|---------------------------------------------------------------


CHORUS

e|-3-------3----3-------3----0--------0----0--------0------------
b|------3-------------3------------1-------------1---------------          
g|--------------------------------------------------------------- repeat 3x        
d|---------------------------------------------------------------          
a|---3-------------3------------0-------------0------------------        
e|---------------------------------------------------------------




------------------------------------------------------------------
this is just the 2nd tab i made so i know i've got some mistakes..
feel free to email me.. tnx. (",)

* fir3w0man (fir3w0man@yahoo.com) ..dats a "zero", not an "o", ok? :) *
                   

Comments