Barbies Cradle - Everyday Chords & Tabs

 

Everyday Chords & Tabs

Barbies Cradle Chords & Tabs

Version: 1 Type: Bass Tab

Everyday Bass Tab

   
Title: EVERYDAY
Artist: Barbie's Cradle
Tabbed by: Judd Romano
email: nirv_Freak15@yahoo.com


This is one of them juvenile songs of Barbie's Cradle. Another personal favorite. 
to my bandmates Dianne, Bleau, and Otik.

here's how it goes, enjoy!


INTRO:

A-E-D
|-----------------------------------------|
|-----------------------------------------|
|-----------5-7----7-7---5--5-5--5-5------|
|---5---5-7-------------------------------|

VERSE 1:

A-E-D
same with intro


REFRAIN:

A-E-D
|------------------------------------|
|------------------------------------|
|----------7-7----5-5----5-5---------|
|---5-5------------------------------|

when I brush my teeth...


CHORUS:

|-----------------------------------------|
|-----------------------------------------|
|-----------5-7----7-7---5--5-5--5-5------|
|---5---5-7-------------------------------|
[ Tab from: http://www.guitartabs.cc/tabs/b/barbies_cradle/everyday_btab.html ]
far away..... far away..... every day....


(repeat intro)


Verse 2:

Same as first verse


CHORUS:

|-----------------------------------------|
|-----------------------------------------|
|-----------5-7----7-7---5--5-5--5-5------|
|---5---5-7-------------------------------|

every day ....every day.... every day


ADLIB:

with the trumpet
A-D-G
|----------------------------------------|
|----------------------------------------|
|----------------------5---5-5-----------|
|--5---5-5---5---5-5-------------3---3-3-| (2x)

(refrain)
(chorus)


BRIDGE:

|----------------------------------------|
|----------------------------------------|
|----------------------5---5-5-----------|
|--5---5-5---5---5-5-------------3---3-3-| (2x)

every monday, tuesday, wednesday ....

(chorus)


E N D



for your comments and suggestions email me at nirv_freak15@yahoo.com or simply contact 
at 09214705163.