Barbies Cradle - All I Need Chords & Tabs

 

All I Need Chords & Tabs

Barbies Cradle Chords & Tabs

Version: 1 Type: Bass Tab

All I Need Bass Tab

Title: ALL I NEED
artist: Barbie's Cradle
Tabbed by: Judd Romano
email: nirv_freak15@yahoo.com

Hello everybody, esp to those who are just as "barbie's cradle fanatic" as I am, lol! By 
this is my first tablature (actually) and I believe this is 99.9 percent correct. It 
me less than half an hour to figure this out.

enjoy!!!

dedicated to my bandmates Diane, Bleau, and Otik


// this is a nice song, in fairness \\

This is how it goes:


INTRO:

|--------------------------------|
|--------------------------------|
|---------------6-0h6--6-6-4h6---|
|---12\4--0h4h6----------------4-|

|----------------------------|
|----------------------------|
|-----------6-0h6--6-6-4h6---|
|--4--0h4h6----------------4-|

VERSE 1:

same with intro
|----------------------------|
|----------------------------|
|-----------6-0h6--6-6-4h6---|
|--4--0h4h6----------------4-|
...Inside of my heart, is an Army of Angels


(pero sa last round may idinagdag; ganito na)
|--------------------------------|
|--------------------------------|
|---------6-0h6--6-6-4h6-7-8-9---|
|--4--0h4h6----------------------|


chorus:

|---------------------------------------------------------|
|-----------10--------------------------------------------|
|--11--9h11-----0h1--1/10---8--8h10--10h11-10-11/13-------|
|---------------------------------------------------------|

|---------------------------------------------------|
|-----------10-----------------------------10-8-----|
|--11--9h11-----0h1--1/10---8--8h10--10-11----------|
|---------------------------------------------------|


right after the first chorus, play the intro once again..


VERSE 2:
[ Tab from: http://www.guitartabs.cc/tabs/b/barbies_cradle/all_i_need_btab.html ]
same with the first verse but with some 'little' variations..

|----------------------------|
|----------------------------|
|-----------6-0h6--6-6-4h6---|
|--4--0h4h6----------------4-|
Hey, little girl do you still...

|----------------------------|
|----------------------------|
|-----------6-0h6--6-6-4h6---|
|--4--0h4h6----------------4-|


|---------------------------|
|---6--4h6p4----------------|
|------------6-0-6--6-4h6---|
|---------------------------|
You know I was there, just a while ago..

|----------------------------|
|----------------------------|
|-----------6-0h6--6-6-4h6---|
|--4--0h4h6----------------4-|

|--------------------------------|
|--------------------------------|
|---------6-0h6--6-6-4h6-7-8-9---|
|--4--0h4h6----------------------|


(CHORUS)
(INTRO)

BRIDGE:

eto pa ulit2x lang to
|-----------------------------|
|-----------------------------|
|---8---10---11---13----------|
|-----------------------------|

Inside... of my heart...


a brief pause (let ring), and then:
mabilis to
|---8-10-8--------------------|
|----------10-8-10------------|
|------------------8-11-------|
|-----------------------------|


(CHORUS)

now that all i need is...

VERSE 3:

played basically similar to verses 1 and 2:

...inside of my heart is an army of angels,
...inside of my heart is an army of angels,
...inside of my heart is an army of angels,

if you might have noticed, as the song is about to end it became more and more 
these guys might have been having fun with it.. hehe! kayo nang bahala sa huli!


( E N D )


for your comments and suggestions you can email me at nirv_freak15@yahoo.com or simply 
me at 09214705163.