Barbie Almalbis - Just A Smile Chords & Tabs

 

Just A Smile Chords & Tabs

Barbie Almalbis Chords & Tabs

Version: 2 Type: Tab 0 ratings
1 star 2 stars 3 stars 4 stars 5 stars
comments

Just A Smile Tab

song: just a smile
artist: barbie almalbis
transcribed by: John J. Dela Cruz(johncloud23@yahoo.com)

tuning: standard tuning, capo on 1st fret

musta sa mga taga obando
i think tama itong tab pakinggan nyo na lang para
makuha nyo..
just enjoy playing it..\m/ any comments or suggestions
email nyo na lng..

-capo 1st fret-

Intro:
e|---------0----------4-0------------0------------0-0------|
B|-----4-4---4------0-----4------4-4---4------4------------|
G|---4------------4------------4------------4---4-----4----|2x
D|---------------------------------------------------------|
A|-0------------2------------0------------2----------------|
E|---------------------------------------------------------|

gtr.2 walang capo (may ganito sa intro pakinggan nyo
na lng)
e|-5-3------------------|
B|-----6-5-6------------|
G|-----------5----------|
D|----------------------|
A|----------------------|
E|----------------------|

Verse:(dikartehan nyo na lng itong verse basta yan ung
chords paiba-iba lng kasi ung picking nyan..)
e|---------0----------4-0------------0------------0-0------|
B|-----4-4---4------0-----4------4-4---4------4------------|
G|---4------------4------------4------------4---4-----4----|4x
D|---------------------------------------------------------|
A|-0------------2------------0------------2----------------|
E|---------------------------------------------------------|
[ Tab from: http://www.guitartabs.cc/tabs/b/barbie_almalbis/just_a_smile_tab_ver_2.html ]
Chorus:strumming (yan ung mga chords listen na lng
para makuha nyo..)
e|-0---0---0--------0---0---0-----------------|
B|-0---0---0--------0---0---0-----------------|
G|-1---2---2--------6---4---2-----------------|2x
D|-2---0---2--------6---4---2-----------------|
A|-2---2---0--------4---2---0-----------------|
E|-0---2---0--------0---0---0-----------------|

Interlude:
e|---------0----------4-0------------0------------0-0------|
B|-----4-4---4------0-----4------4-4---4------4------------|
G|---4------------4------------4------------4---4-----4----|
D|---------------------------------------------------------|
A|-0------------2------------0------------2----------------|
E|---------------------------------------------------------|

Verse II (same as verse I) diskarte nyo na lng

chorus ulit..

Bridge:strumming (puro ganyan lng yan kayo na lng
makinig)
e|-0------0-------|
B|-0------0-------|
G|-2------2-------|4x
D|-0------2-------|
A|-2------0-------|
E|-2------0-------|

pagkatapos ng bridge iusod nyo ung capo sa  2nd fret
para tumaas ng kalahati saka madaling tipahin(diskarte
nyo na)
-capo 2nd fret-
chorus ulit 2 beses..

Outro:
e|-0------0-------|
B|-0------0-------|
G|-2------4-------|3x
D|-2------4-------|
A|-0------2-------|
E|-0------0-------|

Ending:(bagsak lng)
e|-0------|
B|-0------|
G|-2------|let ring..
D|-2------|
A|-0------|
E|-0------|

if there's any problem sa tab ko inom na lng tayo..
paki-rate pls!!!
add nyo din ako sa frienster
Comments