Barathrum - Beltane Chords & Tabs

 

Beltane Chords & Tabs

Barathrum Chords & Tabs

Version: 1 Type: Tab 0 ratings
1 star 2 stars 3 stars 4 stars 5 stars
comments

Beltane Tab

Artist:Barathrum
Album:Saatana
Song: Beltane
Tabbed by: Astyr Pimeys (Finland)
Standard Tuning (EADGBE)

Riff:1
d:-| |----9-7-9-10-12-10-----9-7-5-4-5-7---| |
a:-| |----7-5-7- 8 -10- 8 -----7-5-3-2-3-5---| |
e:-| |--0--------------------0-----------------| |
[ Tab from: http://www.guitartabs.cc/tabs/b/barathrum/beltane_tab.html ]
Riff:2
d:-| |------9-----7----10------13--4-5-4----| |
a:-| |------7-----5---- 8 ------11--2-3-2----| |
e:-| |--00----00---00------00---------------| |

Riff:3
d:-| |---------9-7-10-------13-10-7--------9-7-10--5-5-5--4-4-4----| |
a:-| |---------7-5- 8 -------11- 8 -5--------7-5- 8 --3-3-3--2-2-2----| |
e:-| |---000-----------000------------000-----------------------------| |

Riff:2x?
Riff:3x?
Comments