Barabbas - Slap Bass Song Chords & Tabs

 

Slap Bass Song Chords & Tabs

Barabbas Chords & Tabs

Version: 1 Type: Bass Tab 0 ratings
1 star 2 stars 3 stars 4 stars 5 stars
comments

Slap Bass Song Bass Tab

++++++++++++++++++++++++++++++++++++++++++++++++++++++++
Barabbas
Slap Bass Song
GeTSniCK@aol.com

Legend (key)
x- mute slap
h- hammer-on
p- pull of
s- slap
p- pluck
i- index finger
m- middle finger
w- hold
*- stop


G|----------------------------------------------------|
D|-----------x-----5--x-------5--------------x-----7--|
A|--------x---5h77--x---5h7-x-----------x-----5h77--x-|
E|---0--0--x--------------------3--0--0---x-----------|
     s  s ss ps ss ps p s s s p s  s s s  ps ss ps

G|-----------------------------|
D|-----5------------x-------95-|
A|5h7-x---------x------5h77/---|
E|-------3-0--0---x------------|
  s s sp s s s s  p s ss pp
[ Tab from: http://www.guitartabs.cc/tabs/b/barabbas/slap_bass_song_btab.html ]
G|-------------------------------------------------|
D|---7h99p77p55h--------------------------x-----5--|
A|--------------77p55h----------x--x--x-----5h7----|
E|--------------------66p55p33-0-00-00--x---------0|
     i mi mi mi im im im im im ssssssss s p s s p s

G|-----------0-----7h9--9---x----0-----------------|
D|-----x----------------------7h9-75---------------|
A|x-x----5h7----x-----x---x---------75-------------|
E|-0-x---------0-0--------------------3-0----0h1*--|
  ssss p s s p sss p ps p s p s spsssss s/w  s s
++++++++++++++++++++++++++++++++++++++++++++++++++++++++
On the muted A's after and before the open E's, those
notes are optional (it sounds about the same,) just
remember to hit the E's to mute them a little after you
hit them open ones.  If you want me to send you some
riff variation, just E-mail me at GeTSniCK@aol.com.
If you want me to try to make up some cool bass lines
or riffs or whatever you can make, just E-mail me.


 




Comments