Bap - Verdamp Lang Her Chords & Tabs

 

Verdamp Lang Her Chords & Tabs

Bap Chords & Tabs

Version: 3 Type: Tab 0 ratings
1 star 2 stars 3 stars 4 stars 5 stars
comments

Verdamp Lang Her Tab

   
#----------------------------------PLEASE NOTE---------------------------------#
#This file is the author's own work and represents their interpretation of the #
#song. You may only use this file for private study, scholarship, or research. #
#------------------------------------------------------------------------------#

By: Alex Nast
Subject: TAB: BAP - Verdamp Lang Her 

Verse:
  e                  D                 C       e          D
      |    |   |     |   |   |   |         |    |   |     |   |   |   |    
e------------------|-----------------|------------------|-----------------|
H------------------|-----------------|------------------|-----------------|
G------------------|-----------------|------------------|-----------------|
D-----9---10---9---|-7---9---7---9---|-----5---10---9---|-7---9---7---9---|
A-7-7---7----7---7-|---5---5---5---5-|-3-3---3----7---7-|---5---5---5---5-|
E------------------|-----------------|------------------|-----------------|
[ Tab from: http://www.guitartabs.cc/tabs/b/bap/verdamp_lang_her_tab_ver_3.html ]
Bridge:
  C             A           D             B
e-------------|-----------|-------------|-----------|
H-------------|-----------|-------------|-----------|
G-5-5-x-5-5-4-|-------4-5-|-7-7-x-7-7-5-|-------5-7-|
D-5-5-x-5-5-4-|-7-7-x-4-5-|-7-7-x-7-7-5-|-9-9-x-5-7-|
A-3-3-x-3-3-2-|-7-7-x-----|-5-5-x-5-5-3-|-9-9-x-----|
E-------------|-5-5-x-----|-------------|-7-7-x-----|

  C             D             e 
e-------------|-------------|-----------------|
H-------------|-------------|-----------------|
G-5-5-x-x-5-x-|-7-7-x-x-7-x-|-9-9-x-9-7-5-5-7-|
D-5-5-x-x-5-x-|-7-7-x-x-7-x-|-9-9-x-9-7-5-5-7-|
A-3-3-x-x-3-x-|-5-5-x-x-5-x-|-7-7-x-7-5-3-3-5-|
E-------------|-------------|-----------------|

Chorus:
  G           D           C           D
e-----------|-----------|-----------|-----------|
H-----------|---7-7-6---|-----------|---7-7-7---|
G-----------|-7-6-6-6-x-|-5-x-x-5-x-|-7-6-6-6-x-|
D-5-x-x-5-x-|-7-------x-|-5-x-x-5-x-|-7-------x-|
A-5-x-x-5-x-|-5-------x-|-3-x-x-3-x-|-5-------x-|
E-3-x-x-3-x-|-----------|-----------|-----------|
Comments