Bantam - Dirty Machine Chords & Tabs

 

Dirty Machine Chords & Tabs

Bantam Chords & Tabs

Version: 1 Type: Tab 0 ratings
1 star 2 stars 3 stars 4 stars 5 stars
comments

Dirty Machine Tab

   
Bantam is NYC Hottest rock trio
Gina Volpe (ex-lunachicks) is fronting this band who has just released their second
album, more info about bantam on: www.bantamnyc.com

Song: Dirty Machine
Band: Bantam
Album: Bantam
Heavy Nose Records 2002
tabbed by Ivan Esquivel

Here's a song from bantam's first album
it's really the very first tabbing work i do
so if you find any errors or have any comments
please let me know

Drums intro
Bass line


Verse riff
||---------------------------------------|------------------------------|
||---------------------------------------|------------------------------|
||---------------------------------------|------------------------------|
||---------------------------------------|------------------------------|
||-9--------12---------------------------|------------------------------|
||-7--------10---------------------------|------------------------------|
palm mutting ... listen to get the timing


Main riff - 1
||-------------------|------------------------|-------------------|----------------------|
||-------------------|------------------------|-------------------|----------------------|
||-------------------|------------------------|-------------------|----------------------|
||-------------------|------------------------|-------------------|----------------------|
||-99-999-999-9-9-7--|-99-999-999-9-10-10-9-9-|-99-999-999-9-9-7--|-99-999-999-9-99-99---|
||-77-777-777-7------|-77-777-777-7-----------|-77-777-777-7------|-77-777-777-7-77-77---|


Chorus:
||---------------------------------------|------------------------------|
||---------------------------------------|------------------------------|
||---------------------------------------|------------------------------|
||--------9--10--------------------------|------------------------------|
||-9--12--7--8---------------------------|------------------------------|
||-7--10---------------------------------|------------------------------|
listen to get the timing, it's pretty easy


Main riff - 2
||-------------------|------------------------|-------------------------------------------------|
||-------------------|------------------------|-------------------------------------------------|
||-------------------|------------------------|-------------------------------------------------|
||-------------------|------------------------|-------------------------------------------------|
||-99-999-999-9-9-7--|-99-999-999-9-10-10-9-9-|-1212-121212-121212-1212-------------------------|
||-77-777-777-7------|-77-777-777-7-----------|-1010-101010-101010-1010-9--77-1010-99-77-5/7----|

[ Tab from: http://www.guitartabs.cc/tabs/b/bantam/dirty_machine_tab.html ]
Verse riff:
||---------------------------------------|------------------------------|
||---------------------------------------|------------------------------|
||---------------------------------------|------------------------------|
||---------------------------------------|------------------------------|
||-9--------12---------------------------|------------------------------|
||-7--------10---------------------------|------------------------------|
palm mutting

Variation from main riff.... (i'm not completely sure about this part)               
||------------------------------------|------------------------------|
||------------------------------------|------------------------------|
||------------------------------------|------------------------------|
||------------------------------------|------------------------------|
||------------------------------------|-77-1010-99-77-5/7-77--5/7-77-|
||-77-1010-99-77-5/7-77--5/7-77-------|------------------------------|
play this 3 times                          then this


Then the chorus:
||---------------------------------------|------------------------------|
||---------------------------------------|------------------------------|
||---------------------------------------|------------------------------|
||--------9--10--------------------------|------------------------------|
||-9--12--7--8---------------------------|------------------------------|
||-7--10---------------------------------|------------------------------|


a Bridge
||------------------------------------|
||------------------------------------|
||------------------------------------|
||------------------------------------|
||-9---7/9-99--10---------------------|
||-7-0-5/7-77---8---------------------|


The cool wooh part
||----------------------------------|
||----------------------------------|
||----------------------------------|
||----------------------------------|
||-99-91010-101111-1112-------------|
||-77-78-8--8-9-9--9-10-------------|


and back to the chorus
||---------------------------------------|------------------------------|
||---------------------------------------|------------------------------|
||---------------------------------------|------------------------------|
||--------9--10--------------------------|------------------------------|
||-9--12--7--8---------------------------|--9---------------------------|
||-7--10---------------------------------|--7---------------------------|
                                            ends with this 

any comments:
leper_messiah83@hotmail.com

www.ginasdirtymachine.tk
Comments