Banlieue Rouge - Enterre Vivant Chords & Tabs

 

Enterre Vivant Chords & Tabs

Banlieue Rouge Chords & Tabs

Version: 1 Type: Tab 0 ratings
1 star 2 stars 3 stars 4 stars 5 stars
comments

Enterre Vivant Tab

   
#----------------------------------PLEASE NOTE---------------------------------#
#This file is the author's own work and represents their interpretation of the #
#song. You may only use this file for private study, scholarship, or research. #
#------------------------------------------------------------------------------##
From: syk@nyongwa.montreal.qc.ca (Bruno Lamoureux)
Subject: TAB: Enterre Vivant by Banlieue Rouge

Title:         Enterre Vivant
Group:        Banlieue Rouge
Album:         Engrenages
Wrote by:     Banlieue Rouge
Transcribe by: Bruno Lamoureux

Distortion
|------------------------------------------------------------------------|
|-0h1p0h1p0h1p0h1p0h1p0h1p0h1p0h1p0h1p0h1p0h1p0h1p0h1p0h1p0h1p0h1p0h1p0--|
|------------------------------------------------------------------------|
|------------------------------------------------------------------------|
|------------------------------------------------------------------------|
|------------------------------------------------------------------------|

Rhytm A  (2 fois)

|--------------------------------------12----------|---------------------|
|-8--8-8-8-8------------8--8--8-8-8-8-----12----11-|---------------------|
|-7--7-7-7-7-9------7-9----7--7-7-7-7--------12----|---------------------|
|-5--5-5-5-5-9--7-9--------5--5-5-5-5--------------|---------------------|
|------------7-------------------------------------|---------------------|
|--------------------------------------------------|---------------------|

                                                  bend half & release
P.M........   ...........   ...........   ...........   
|--------------------------------------------------------------------|
|------------------------------------------------------------------|
|-------------4-------------4-------------4-------------4(5)4-----------|
|-------------4-------------4-------------4-----------------------------|
|-------------2-------------2-------------2-----------------------------|
|-0-0-0-3-3-3---0-0-0-3-3-3---0-0-0-3-3-3---0-0-0-3-3-3-----------------|

Rhytm B (3 times)

|---------------------------------------------------------|--------------|
|---------------------------------------------------------|--------------|
|-------------4-------------4-------------4-------------4-|--------------|
|-------------4-------------4-------------4-------------4-|--------------|
|-------------2-------------2-------------2-------------2-|--------------|
|-0-0-0-3-3-3---0-0-0-3-3-3---0-0-0-3-3-3---0-0-0-3-3-3---|--------------|
[ Tab from: http://www.guitartabs.cc/tabs/b/banlieue_rouge/enterre_vivant_tab.html ]
Rhytm C
Clean Tone
|-0--0-3-3--1--4--0--0-3-3--4--1--0--0-3-3--1--4-0-0-0-0-0-0-0-0-0-0-0---|
|-0--0-3-3--2--5--0--0-3-3--5--2--0--0-3-3--2--5-0-0-0-0-0-0-0-0-0-0-0---|
|-0--0-0-0--3--6--0--0-0-0--6--3--0--0-0-0--3--6-0-0-0-0-0-0-0-0-0-0-0---|
|-2--2-0-0--3--6--2--2-0-0--6--3--2--2-0-0--3--6-2-2-2-2-2-2-2-2-2-2-2---|
|------------------------------------------------------------------------|
|------------------------------------------------------------------------|


Distortion
|-12---------|-----------------------------------------------------------|
|----12----11|-------5------------5-----------5-----------------------5--|
|-------12---|-0-3-4---0-3--0-3-4---0---0-3-4---0-3--2-0h2p0----0-3-4----|
|------------|------------------------2----------------------2-----------|
|------------|-----------------------------------------------------------|
|------------|-----------------------------------------------------------|


                                                  (4 times)
|----------------------------------------|------------------------------|
|------------5---5-------5----------3-4-5|------------------------------|
|-0-3--0-3-4---4---0-3-4---0-3--4-4------|-------------9----------------|
|----------------------------------------|-------------9------------6-5-|
|----------------------------------------|-------------7----------------|
|----------------------------------------|-5-5-5-8-8-8---5-5-5-8-8-8----|

|---------------------------------------------------------|--------------|
|---------------------------------------------------------|--------------|
|-------------9-------------9-------------9-------------9-|--------------|
|-------------9-------------9-------------9-------------9-|--------------|
|-------------7-------------7-------------7-------------7-|--------------|
|-5-5-5-8-8-8---5-5-5-8-8-8---5-5-5-8-8-8---5-5-5-8-8-8---|--------------|

Rhytm C (2 times)
                              End!
|---------------------|--0-----------------------------------------------|
|---------------------|--0-----------------------------------------------|
|---------------------|--0-----------------------------------------------|
|---------------------|--2-----------------------------------------------|
|---------------------|--2-----------------------------------------------|
|---------------------|--------------------------------------------------|

|------------------------------------------------------------------------|
|------------------------------------------------------------------------|
|------------------------------------------------------------------------|
|------------------------------------------------------------------------|
|------------------------------------------------------------------------|
|------------------------------------------------------------------------|
Comments