Bangles - Hazy Shade Of Winter Chords & Tabs

 

Hazy Shade Of Winter Chords & Tabs

Bangles Chords & Tabs

Version: 1 Type: Tab 0 ratings
1 star 2 stars 3 stars 4 stars 5 stars
comments

Hazy Shade Of Winter Tab

Song:  Hazy Shade of Winter
Artist:  The Bangles
Tabbed by:  Brenda (please contact me if any problems at mid_air_@hotmail.com, cheers)

This is the main riff to the song.  Enjoy!
[ Tab from: http://www.guitartabs.cc/tabs/b/bangles/hazy_shade_of_winter_tab.html ]
e|-------------------------|--------------------|--------------------------|
B|-------------------------|--------------------|--------------------------|
G|-------------5-----------|-------8--6~--------|--------------3(4)--3-----|
D|-------6--8-----8--6-----|----8-----------8\--|--------3--6-----------6--|
A|-8--8-----------------6--|--------------------|--4--4-------------------3|
E|-------------------------|--------------------|--------------------------|

e|----------------|
B|----------------|
G|-----5--3----5--|
D|--5-------------|
A|----------------|
E|----------------|


It's that simple, but this bit --3(4)--  that 3 is ment to be a little trill
Comments