Bandage - Song Chords & Tabs

 

Song Chords & Tabs

Bandage Chords & Tabs

Version: 1 Type: Tab 0 ratings
1 star 2 stars 3 stars 4 stars 5 stars
comments

Song Tab

Bandage
Song 1

        Intro
Clean  |-------------------------------------|
1st 4  |-----1-0------3-1-----1-0--0h1-0-3-0-|
Times. |---2-------2--------2----------------|4 Times
Dist.  |-2-------2--------2------------------|
the    |-0-------0--------0------------------|
Rest   |-------------------------------------|

        Riff 1
       |------------------------------------------------------|
       |------1-0------3-1------1-0---------------------------|
Dist.  |-2222-----2222-----2222-------------------------------|4 Times
       |-2222-----2222-----2222-------------------------------|
       |-0000-----0000-----0000---------3-----5---------------|
       |-----------------------------0h3---0h5---Slide pick up|
         P.M.     P.M.     P.M.

        Riff 2
       |--0-----1-----5-----3--|
       |--0-----1-----5-----3--|
Dist.  |--0-----2-----6-----4--|4 Times
       |--2-----3-----7-----5--|
       |--2-----3-----7-----5--|
       |--0-----1-----5-----3--|


        Riff 3
       |-------------------------------------|
       |-----1-0------3-1-----1-0--0h1-0-3-0-|
Dist.  |---2-------2--------2----------------|4 Times
       |-2-------2--------2------------------|
       |-0-------0--------0------------------|
       |-------------------------------------|
         P.M     P.M.     P.M.
[ Tab from: http://www.guitartabs.cc/tabs/b/bandage/song_tab.html ]
        Riff 4
       |---------------------------------|
       |---------------------------------|
       |---------------------------------|4 Times
Dist.  |-2-2222--3-3333--7-7777--5-5555--|
       |-2-2222--3-3333--7-7777--5-5555--|
       |-0-0000--1-1111--5-5555--3-3333--|
           P.M.    P.M.    P.M.    P.M.


        Riff 5
       |---------------------------------------------------------|
       |---------------------------------------------------------|
Dist.  |---------------------------------------------------------|
       |-2----------2--3----------3--7----------7--5----------5--|
       |-2------0h2-2--3------1h3-3--7------5h7-7--5------3h5-5--|
       |-0--0h2-----0--1--1h3-----1--5--5h7-----5--3--3h5-----3--|
                                                           4 Times

        Outro
       |------------------------------------------------------------|
       |-----1-0-----3-1-----1-0--0h1-0-3-0-3-3s5-------------------|
Dist.  |---2-------2-------2----------------------4-5--4-4h5p4---2b-|
       |-2-------2-------2-------------------------------------5----|
       |-0-------0-------0------------------------------------------|
       |------------------------------------------------------------|



Riff Sequence

Intro
Riff 1
Riff 2
Riff 3
Riff 1
Riff 2
Riff 4
Riff 5
Riff 2
Outro


Get Lit!
Comments