Band Zonder Banaan - Koning Pinteman Chords & Tabs

 

Koning Pinteman Chords & Tabs

Band Zonder Banaan Chords & Tabs

Version: 1 Type: Tab 0 ratings
1 star 2 stars 3 stars 4 stars 5 stars
comments

Koning Pinteman Tab

   
Official website: http://www.bzb.nl/
Band is from the Netherlands, sings in dutch

   BAND ZONDER BANAAN - KONING PINTEMAN

I figured this out cause I couldn't found it at the olga
or other tabpages, the rythm is quite easy, so good luck!

intro
e|---------------------------------------------------|
B|---------------------------------------------------|
G|---------------------------------------------------|
D|-----------------0---0-0-0---0-2---------0-2-3-----|
A|-0-0-2-3-3-3-2-3-----------3-------3-3-3-----------|
E|---------------------------------------------------|


e|---------------------------------------------------|
B|---------------------------------------------------|
G|---------------------------------------------------|
D|-3-5-5-5-3-2-0-------------------------------------|
A|---------------3----3------------------------------|
E|------------------3--------------------------------|

bridge
e|---------------------------------------------------|
B|---------------------------------------------------|
G|---------------------------------------------------|
D|0-2-3-5-5-5-3-2-0----------------------------------|
A|------------------3--------------------------------|
E|---------------------------------------------------|
[ Tab from: http://www.guitartabs.cc/tabs/b/band_zonder_banaan/koning_pinteman_tab.html ]
solo 1
e|---------------------------------------------------|
B|---------------------------------------------------|
G|---------------------------------------------------|
D|-----------------0---0-0-0---0-2---------0-2-3-----|
A|-0-0-2-3-3-3-2-3-----------3-------3-3-3-----------|
E|---------------------------------------------------|


e|---------------------------------------------------|
B|---------------------------------------------------|
G|---------------------------------------------------|
D|-3-5-5-5-3-2-0-------------------------------------|
A|---------------3----3------------------------------|
E|------------------3--------------------------------|


solo 2
e|---------------------------------------------------|
B|---------------------------------------------------|
G|---------------------------------------------------|
D|-----------------0----------0-0-0---0-2------------|
A|-0-0-2-3-3-3-2-3---3-2-0----------3----------------|
E|-------------------------3-------------------------|

e|---------------------------------------------------|
B|---------------------------------------------------|
G|------------------2--------------------------------|
D|------0-2-3-2-3-5---5-5-5-3-2-0--------------------|
A|3-3-3---------------------------3---0-2-3----------|
E|----------------------------------3----------------|

verse
C  G  C  G  C   (find out the rythm by yourself)

chorus
C  G  C  F  G  C   (find out the rythm by yourself)

tabbed by:
Bram van Goch, bram26584@hotmail.com
Roger and Raymond van de Berg, bramtheguitarking@roger-raymond.tmfweb.nl
Comments