Band Aid 20 - Do They Know Its Christmas Chords & Tabs

 

Do They Know Its Christmas Chords & Tabs

Band Aid 20 Chords & Tabs

Version: 2 Type: Tab 0 ratings
1 star 2 stars 3 stars 4 stars 5 stars
comments

Do They Know Its Christmas Tab

   
-----------------------------------------------------------------------
	          DO THEY KNOW IT'S CHRISTMAS - Band Aid 20
-----------------------------------------------------------------------
Tabbed by: Nathan Sturgess
Email:

Tuning: Standard

I figured this out after listening to it loads
[ Tab from: http://www.guitartabs.cc/tabs/b/band_aid_20/do_they_know_its_christmas_tab_ver_2.html ]
e|--12-12-13-15----17-15-13-15-----------------------------------------|
B|--------------13------------13---------------------------------------|
G|---------------------------------------------------------------------|
D|---------------------------------------------------------------------|
A|---------------------------------------------------------------------|
E|---------------------------------------------------------------------|
           Then you get the second solo like this
e|--12-12-13-15-----17-15-13-15----17-15-13-12-1312-10-8---------------|  4 times
B|--------------13--------------13--------------------------------------|
G|----------------------------------------------------------------------|
D|----------------------------------------------------------------------|
A|----------------------------------------------------------------------|
E|----------------------------------------------------------------------|

e|---------------------------------------------------------------------|
B|---------------------------------------------------------------------|
G|---------------------------------------------------------------------|
D|-10-10-10-13-10-8-8-8-6-6-6-5-5-5------------------------------------|
A|---------------------------------------------------------------------|
E|---------------------------------------------------------------------|

| /  slide up
| \  slide down
| h  hammer-on
| p  pull-off
| ~  vibrato
| +  harmonic
| x  Mute note
Comments