Bamboo - War Of Hearts And Minds Chords & Tabs

 

War Of Hearts And Minds Chords & Tabs

Bamboo Chords & Tabs

Version: 3 Type: Tab 0 ratings
1 star 2 stars 3 stars 4 stars 5 stars
comments

War Of Hearts And Minds Tab

   
War of Hearts and Minds by Bamboo

Please rate my tab!!

(Just listen to the *SONG*)

intro:
E|-----10-----8----7-----------------3----2---0------------|
D|-------8-----8----8-----------------3----3---2-----------|
G|--------0-----0----0-----------------0----0---0----------| 
B|---------------------------------------------------------|
A|---------------------------------------------------------|
E|--8----------------------------3-------------------------|

Verse1:
chords:
  C     G
|---| |-3-|
|-3-| |-2-|
|-2-| |---| (4x)
|---| |---|
|-1-| |-3-|
|---| |-3-|
Verse:
C
War of hearts and minds
G
Who will pay the price?
C		   G
Does anybody care?
C
It's not make believe
G
You've seen it on your TV screens
C			G
I'm glad you're not here
[ Tab from: http://www.guitartabs.cc/tabs/b/bamboo/war_of_hearts_and_minds_tab_ver_3.html ]
CHORUS:
chords:
 C9     G
|---| |-3-|
|-3-| |-2-|
|-2-| |---| (3x) <- after this 
|---| |---|
|-3-| |-3-|
|-3-| |-3-|
      
  F     C     G
|-1-| |---| |-3-|
|-2-| |-3-| |-2-|
|-3-| |-2-| |---| (2x) <-this is the second part
|-3-| |---| |---|
|-1-| |-1-| |-3-|
|-1-| |---| |-3-|

C9
Take my wife, please
	G
If you think it's funny
C9			G	
Cut my heart out for a souvenir
C9
Take my life, please
	G
If you think it's worth it
F-C			G
 I'm glad you're not here

*Repeat INTRO*

*DO VERSE 1 CHORDS*
War of hearts and minds
7 days later
I still can't find
Truth and peace
How will I find my way
They say love, love without fear
Is said to be the key
But just look around
No clear answer to be found
Get me out of here

No to malayan!! Mapua pa rin!!
creator: *J-ass Na^^^^*
Masubmit sana toh!! oh.. Lord help me!!

-L-
Comments