Bamboo - These Days Chords & Tabs

 

These Days Chords & Tabs

Bamboo Chords & Tabs

Version: 1 Type: Bass Tab 0 ratings
1 star 2 stars 3 stars 4 stars 5 stars
comments

These Days Bass Tab

THESE DAYS 
bamboo
 kayo n bhla kng d2.. pakinggan nio n lng para sa timing.... ok nmn 2nog n2 eh...
ginamit ko n 2 sa battle of the bands s skul nmn.. ok nmn xa!! hehehe!!

Mabuhay DE'AMBO lalo nko.... jasper hehehe!!



intro:

|------------------------------------|
|------------------------------------|
|------------------------------------|
|---33--33333-------11-11111---------|  (3x)

|------------------------------------|
|------------------------------------|
|------------------------------------|
|---33--33333-------1-pause----------|

verse 1:

|------------------------------------|
|------------------------------------|
|------------------------------------|
|---33--33333-------11-11111---------|  (4x)

|------------------------------------|
|------------------------------------|
|------------------------------------|
|---33--33333-------1-pause----------| 

chorus: 
|------------------------------------|
|------------------------------------|
|------------------------------------|
|---33--33333-------55-55555---------|   

|------------------------------------|
|------------------------------------|
|---33--33333-------55-55555---------|   
|------------------------------------|
                (2x)

verse 2:
|------------------------------------|
|------------------------------------|
|------------------------------------|
|---33--33333-------11-11111---------|  (2x)

|------------------------------------|
|------------------------------------|
|------------------------------------|
|---33333333333-----11-11111---------|

|------------------------------------|
|------------------------------------|
|------------------------------------|
|---33--33333-------1-pause----------|

chorus:
[ Tab from: http://www.guitartabs.cc/tabs/b/bamboo/these_days_btab.html ]
|------------------------------------|
|------------------------------------|
|------------------------------------|
|---33--33333-------55-55555---------|   

|------------------------------------|
|------------------------------------|
|---33--33333-------55-55555---------|   
|------------------------------------|
                (2x)
hndi ako sure sa part na 2... e2 ung bago magsolo ung lead...
kayo n bhla magpalit n2.. 

|------------------------------------------|
|------------------------------------------|
|---7-777-----5-555-----3-333--------------|
|---------------------------------111111---|

bridge:

|------------------------------------|
|------------------------------------|
|------------------------------------|
|---33--33333-------11-11111---------|  

e2 lng hanggang matapos ung bridge peo dapat magtatapos sa "F" ung bass...

chorus:

|------------------------------------|
|------------------------------------|
|------------------------------------|
|---3---------------5----------------|        

|------------------------------------|
|------------------------------------|
|---3---------------5-5-5-5-5-5------|   
|------------------------------------|

|------------------------------------|
|------------------------------------|
|------------------------------------|
|---33--33333-------55-55555---------|   

|------------------------------------|
|------------------------------------|
|---33--33333-------55-55555---------|   
|------------------------------------|







ulitin lng 2 hanggang matapos ung kanta...
|------------------------------------|
|------------------------------------|
|------------------------------------|
|---33--33333-------11-11111---------|  

gawin 2 kapag dun na sa last 4 lines ng kanta

|-----------------------------------------------|
|-----------------------------------------------|
|-----------------------------------------------|
|---33333333333333-------11111111111111---------|  

kayo n bhla d2!!!...
 thankx to my band DE'AMBO
Comments