Bamboo - Sunshine Song Chords & Tabs

 

Sunshine Song Chords & Tabs

Bamboo Chords & Tabs

Version: 1 Type: Tab 0 ratings
1 star 2 stars 3 stars 4 stars 5 stars
comments

Sunshine Song Tab

Artist: Bamboo
Song: Sunshine Song
Tabbed by: GCF_14
Email: feander_14@yahoo.com
Tuning: EADGBE


Verse:
  
  the sun is up.............
E|----------------------------------------------------------|
B|----------------------------------------------------------|
G|----------------------------------------------------------|
D|--10-10-10-10---8-8-8-8---7-7-7-7---8-8-8-8---------------|
A|--10-10-10-10---8-8-8-8---7-7-7-7---8-8-8-8---------------|
E|---8--8--8--8---6-6-6-6---5-5-5-5---6-6-6-6---------------|

  but it's alright................
E|----------------------------------------------------------|
B|----------------------------------------------------------|
G|----------------------------------------------------------|
D|--10-10-10-10---8-8-8-8---7-7-7-7---8-8-8-8---------------|
A|--10-10-10-10---8-8-8-8---7-7-7-7---8-8-8-8---------------|
E|---8--8--8--8---6-6-6-6---5-5-5-5---6-6-6-6---------------|

Chorus:
[ Tab from: http://www.guitartabs.cc/tabs/b/bamboo/sunshine_song_tab.html ]
  (wake up) it's a ...................
E|-------------------------------------------------------------------------|
B|-------------------------------------------------------------------------|
G|---------------8-8-8-8---------------8-8-8-8---------------8-8-8-8-------|
D|---6-6---8-8---8-8-8-8---6-6---8-8---8-8-8-8---6-6---8-8---8-8-8-8-------|
A|---6-6---8-8---6-6-6-6---6-6---8-8---6-6-6-6---6-6---8-8---6-6-6-6-------|
E|---4-4---6-6-------------4-4---6-6-------------4-4---6-6-----------------|


E|---------------------------------------|
B|---------------------------------------|
G|---------------------------------------|
D|---6-6---8-8---10-10-10-10-------------|
A|---6-6---8-8---10-10-10-10-------------|
E|---4-4---6-6----8--8--8--8-------------|

  one good day comin up!
E|---------------------------------|
B|---------------------------------|
G|-----------8---------------------|
D|---6---8---8---------------------|
A|---6---8---6---------------------|
E|---4---6-------------------------|


....................................END.....................................
                       >>>>> RATE NYO NA LANG <<<<<
Comments