Bamboo - Peace Man Chords & Tabs

 

Peace Man Chords & Tabs

Bamboo Chords & Tabs

Version: 4 Type: Tab 0 ratings
1 star 2 stars 3 stars 4 stars 5 stars
comments

Peace Man Tab

Peace Man by Bamboo
intro tabbed by Paul Respicio
e-mail me at dis_banmates@yahoo.com

[----------------------------------]
[----------------------------------]
[-4-5-7-4--------5-4-5-7-4---------]
[---------5-2-2/3----------5-2-2/3-]
[----------------------------------]
[----------------------------------]
[ Tab from: http://www.guitartabs.cc/tabs/b/bamboo/peace_man_tab_ver_4.html ]
[----------------------------------------------------]
[----------------------------------------------------]
[-7-9-10-9-7/5-5/12-12/14/12-5h7p5-------------------]
[----------------------------------5h7-5-------------]
[-----------------------------------------3h5p3------]
[----------------------------------------------------]

yan...tama siguro yan... timing lang ng mga hammer and pulloffs and slides..pakinggan niyo rin
Comments