Bamboo - Peace Man Chords & Tabs

 

Peace Man Chords & Tabs

Bamboo Chords & Tabs

Version: 1 Type: Tab 0 ratings
1 star 2 stars 3 stars 4 stars 5 stars
comments

Peace Man Tab

Intro and chorus:
e -----------------------------------0-
b ----------------------------------1--
g ---------------------------------0---
d --9-10-12-10-9-------------9^---2----
a -----------------10--7-7/8-----3-----
e -------------------------------------

I think verses are C-G... 

-----------------------------------------------------------------
-----------------------------------------------------------------
--------------------------7-9-10--9-7----10/12--12/14-12---------
-9-10-12-10-9-------------------------10-----------------12r10^--
---------------10--7-7/8-----------------------------------------
-----------------------------------------------------------------

e------0---------------------
b-----1----------------------
g----0-----------------------
d---2------------------------
a--3------10/12-10-----------
e-------------------10r8^----
[ Tab from: http://www.guitartabs.cc/tabs/b/bamboo/peace_man_tab.html ]
(01:29)
--12--11--10---9-9-------------------------------------------------------
--12--11--10--9--9------------------------------------------------------
-----------------------------------------------------------------
-----------------------------------------------------------------
-----------------------------------------------------------------
-----------------------------------------------------------------


solo:
---------------------------
----------5h6-5------------
---5-5h7---------7-5-------
---------------------6/7-5-
---------------------------
---------------------------

---------------------------------------------------8-8po7-8po7--------
----------5-6po5-----5-6po5------8/10-8------8h10----------------8po0-
-----5h7---------7-5--------7-5---------8h10--------------------------
-5h7------------------------------------------------------------------
----------------------------------------------------------------------
----------------------------------------------------------------------

-----------------------14-14-12/13------------------9^---
-----------------12h13-------------14--7/8-6--5-7-8------
------------12h13----------------------------------------
-------12h13---------------------------------------------
--12h13--------------------------------------------------
---------------------------------------------------------

ym 
Comments