Bamboo - Noypi Chords & Tabs

 

Noypi Chords & Tabs

Bamboo Chords & Tabs

Version: 8 Type: Tab 0 ratings
1 star 2 stars 3 stars 4 stars 5 stars
comments

Noypi Tab

   
Submitted By: johngho
Email: ghojdanz@yahoo.com
Band: Bamboo
Song: Noypi



band;bamboo
song;noypi
Tabbed By:ghojohn
E-mail: ghojdanz@yahoo.com

Intro:
e|-----------------|
B|-----------------|
G|-----------------|
D|-----------------| x2
A|-5-4h5--3-2h3----|
E|--5---5------3---|

Verse: Tingnan mo iyong palad...
e|----------------5-5-5-5-5-5-5-----------------3-3-3-3-3-3-3--|
B|----------------5-5-5-5-5-5-5-----------------3-3-3-3-3-3-3--|
G|-7-7-7-7-7-7-7--6-6-6-6-6-6-6--5-5-5-5-5-5-5--4-4-4-4-4-4-4--|
D|-7-7-7-7-7-7-7--7-7-7-7-7-7-7--5-5-5-5-5-5-5--5-5-5-5-5-5-5--| x2
A|-5-5-5-5-5-5-5--7-7-7-7-7-7-7--3-3-3-3-3-3-3--5-5-5-5-5-5-5--|
E|----------------5-5-5-5-5-5-5-----------------3-4-3-3-3-3-3--|

       Saan ka man naroroon...
e|----------------5-5-5-5-5-5-5-----------------3-3-3-3-3-3-3-3-3-3-3-3-3-3|
B|----------------5-5-5-5-5-5-5-----------------3-3-3-3-3-3-3-3-3-3-3-3-3-3|
G|-7-7-7-7-7-7-7--6-6-6-6-6-6-6--5-5-5-5-5-5-5--4-4-4-4-4-4-4-4-4-4-4-4-4-4|
D|-7-7-7-7-7-7-7--7-7-7-7-7-7-7--5-5-5-5-5-5-5--5-5-5-5-5-5-5-5-5-5-5-5-5-5|
A|-5-5-5-5-5-5-5--7-7-7-7-7-7-7--3-3-3-3-3-3-3--5-5-5-5-5-5-5-5-5-5-5-5-5-5|
E|----------------5-5-5-5-5-5-5-----------------3-4-3-3-3-3-3-3-3-3-3-3-3-3|

Chorus: Hoy Pinoy ako...
e|-10-10-10-10-10-10-10--5-5-5-5-5-5-5--8--8--8--8--8--8--8---3-3-3-3-3-3-3--|
B|-10-10-10-10-10-10-10--5-5-5-5-5-5-5--8--8--8--8--8--8--8---3-3-3-3-3-3-3--|
G|-11-11-11-11-11-11-11--6-6-6-6-6-6-6--9--9--9--9--9--9--9---4-4-4-4-4-4-4--|
D|-12-12-12-12-12-12-12--7-7-7-7-7-7-7--10-10-10-10-10-10-10--5-5-5-5-5-5-5--| X2
A|-12-12-12-12-12-12-12--7-7-7-7-7-7-7--10-10-10-10-10-10-10--5-5-5-5-5-5-5--|
E|-10-10-10-10-10-10-10--5-5-5-5-5-5-5--8--8--8--8--8--8--8---3-3-3-3-3-3-5--|

e|-----------------|
B|-----------------|
G|-----------------|
D|-----------------| x2
A|-5-4h5--3-2h3----|
E|--5---5------3---|

Verse: Sinisid ko ang dagat...
e|----------------5-5-5-5-5-5-5-----------------3-3-3-3-3-3-3--|
B|----------------5-5-5-5-5-5-5-----------------3-3-3-3-3-3-3--|
G|-7-7-7-7-7-7-7--6-6-6-6-6-6-6--5-5-5-5-5-5-5--4-4-4-4-4-4-4--|
D|-7-7-7-7-7-7-7--7-7-7-7-7-7-7--5-5-5-5-5-5-5--5-5-5-5-5-5-5--| x2
A|-5-5-5-5-5-5-5--7-7-7-7-7-7-7--3-3-3-3-3-3-3--5-5-5-5-5-5-5--|
E|----------------5-5-5-5-5-5-5-----------------3-4-3-3-3-3-3--|

       Oh sabi nila...
e|----------------5-5-5-5-5-5-5-----------------3-3-3-3-3-3-3--|
B|----------------5-5-5-5-5-5-5-----------------3-3-3-3-3-3-3--|
G|-7-7-7-7-7-7-7--6-6-6-6-6-6-6--5-5-5-5-5-5-5--4-4-4-4-4-4-4--|
D|-7-7-7-7-7-7-7--7-7-7-7-7-7-7--5-5-5-5-5-5-5--5-5-5-5-5-5-5--|
A|-5-5-5-5-5-5-5--7-7-7-7-7-7-7--3-3-3-3-3-3-3--5-5-5-5-5-5-5--|
E|----------------5-5-5-5-5-5-5-----------------3-4-3-3-3-3-3--|

Chorus: Hoy Pinoy ako...
e|-10-10-10-10-10-10-10--5-5-5-5-5-5-5--8--8--8--8--8--8--8---3-3-3-3-3-3-3--|
B|-10-10-10-10-10-10-10--5-5-5-5-5-5-5--8--8--8--8--8--8--8---3-3-3-3-3-3-3--|
G|-11-11-11-11-11-11-11--6-6-6-6-6-6-6--9--9--9--9--9--9--9---4-4-4-4-4-4-4--|
D|-12-12-12-12-12-12-12--7-7-7-7-7-7-7--10-10-10-10-10-10-10--5-5-5-5-5-5-5--| X2
A|-12-12-12-12-12-12-12--7-7-7-7-7-7-7--10-10-10-10-10-10-10--5-5-5-5-5-5-5--|
E|-10-10-10-10-10-10-10--5-5-5-5-5-5-5--8--8--8--8--8--8--8---3-3-3-3-3-3-5--|
[ Tab from: http://www.guitartabs.cc/tabs/b/bamboo/noypi_tab_ver_8.html ]
Interlude:
e|--------------------------------------------------|
B|--------------------------------------------------|
G|-7/9-9-9-9-9/11-11-11-11-11-----------------------|
D|-7/9-9-9-9-9/11-11-11-11-11-11-11-11-11-11-11-11--|
A|-5/7-7-7-7-7/9--9--9--9--9--11-11-11-11-11-11-11--|
E|----------------------------9--9--9--9--9--9--9---|

e|---------------------------------------------------------------|
B|---------------------------------------------------------------|
G|---------------------------------------------------------------|
D|-11-9/11-11-11-11-11/12-12-12-12-12-7/9-9-9-9-9/11-11-11-11-11-|
A|-11-9/11-11-11-11-11/12-12-12-12-12-7/9-9-9-9-9/11-11-11-11-11-|
E|--7/9--9--9--9---9/10-10-10-10-10-5/7-7-7-7-7/9--9--9--9--9----|

    A      D      C      G
e|------|------|------|------|
B|----3-|----2-|----1-|----3-|
G|---2--|---2--|---0--|---0--|
D|-0----|-2----|-2----|-0----| x2
A|--0---|--0---|--3---|--2---|
E|------|------|------|------|

Bridge: Rinig mo ba...
e|----------------5-5-5-5-5-5-5-----------------3-3-3-3-3-3-3-3-3-3-3-3-3-3|
B|----------------5-5-5-5-5-5-5-----------------3-3-3-3-3-3-3-3-3-3-3-3-3-3|
G|-7-7-7-7-7-7-7--6-6-6-6-6-6-6--5-5-5-5-5-5-5--4-4-4-4-4-4-4-4-4-4-4-4-4-4|
D|-7-7-7-7-7-7-7--7-7-7-7-7-7-7--5-5-5-5-5-5-5--5-5-5-5-5-5-5-5-5-5-5-5-5-5|
A|-5-5-5-5-5-5-5--7-7-7-7-7-7-7--3-3-3-3-3-3-3--5-5-5-5-5-5-5-5-5-5-5-5-5-5|
E|----------------5-5-5-5-5-5-5-----------------3-4-3-3-3-3-3-3-3-3-3-3-3-3|

Chorus: Hoy Pinoy ako...
e|-10-10-10-10-10-10-10--5-5-5-5-5-5-5--8--8--8--8--8--8--8---3-3-3-3-3-3-3--|
B|-10-10-10-10-10-10-10--5-5-5-5-5-5-5--8--8--8--8--8--8--8---3-3-3-3-3-3-3--|
G|-11-11-11-11-11-11-11--6-6-6-6-6-6-6--9--9--9--9--9--9--9---4-4-4-4-4-4-4--|
D|-12-12-12-12-12-12-12--7-7-7-7-7-7-7--10-10-10-10-10-10-10--5-5-5-5-5-5-5--| X2
A|-12-12-12-12-12-12-12--7-7-7-7-7-7-7--10-10-10-10-10-10-10--5-5-5-5-5-5-5--|
E|-10-10-10-10-10-10-10--5-5-5-5-5-5-5--8--8--8--8--8--8--8---3-3-3-3-3-3-5--|

Outro:
e|--------------------------------------------------|
B|--------------------------------------------------|
G|-7/9-9-9-9-9/11-11-11-11-11-----------------------|
D|-7/9-9-9-9-9/11-11-11-11-11-11-11-11-11-11-11-11--|
A|-5/7-7-7-7-7/9--9--9--9--9--11-11-11-11-11-11-11--|
E|----------------------------9--9--9--9--9--9--9---|

e|------------------------------------------------|
B|------------------------------------------------|
G|------------------------------------------------|
D|-9/11-11-11-11-11/12-12-12-12-12-7-7-7-7-7-7-7--|
A|-9/11-11-11-11-11/12-12-12-12-12-7-7-7-7-7-7-7--|
E|-7/9--9--9--9---9/10-10-10-10-10-5-5-5-5-5-5-5--|

e|--------------------------------------------------|
B|--------------------------------------------------|
G|-7/9-9-9-9-9/11-11-11-11-11-----------------------|
D|-7/9-9-9-9-9/11-11-11-11-11-11-11-11-11-11-11-11--|
A|-5/7-7-7-7-7/9--9--9--9--9--11-11-11-11-11-11-11--|
E|----------------------------9--9--9--9--9--9--9---|

e|---------------------------------------------------------------|
B|---------------------------------------------------------------|
G|---------------------------------------------------------------|
D|-11-9/11-11-11-11-11/12-12-12-12-12-7/9-9-9-9-9/11-11-11-11-11-|
A|-11-9/11-11-11-11-11/12-12-12-12-12-7/9-9-9-9-9/11-11-11-11-11-|
E|--7/9--9--9--9---9/10-10-10-10-10-5/7-7-7-7-7/9--9--9--9--9----|
Comments