Bamboo - Noypi Chords & Tabs

 

Noypi Chords & Tabs

Bamboo Chords & Tabs

Version: 4 Type: Tab 0 ratings
1 star 2 stars 3 stars 4 stars 5 stars
comments

Noypi Tab

   
this is 99.99% accurate and detailed... 

tuning: EADGBe (standard)

Intro: (2x)

  D       A      C       G
|--------------------------------
|--------------------------------  (just strum
|--------------------------------   for 2x!!!)
|--------------------------------
|-12------7------10------5-------
|-10------5------8-------3-------


Verse:  

  D       A      C       G
|--------------------------------
|--------------------------------  (just strum again
|--------------------------------      for 2x!!!)
|--------------------------------
|-12------7------10------5-------
|-10------5------8-------3-------


then,

  D       A      C       G
|--------------------------------------
|--------------------------------------
|--------------------------------------
|--------------------------------------
|-12------7------10------5-5-5-5-5-5-5-
|-10------5------8-------3-3-3-3-3-3-3-


Chorus:

 Hoy!!! Pinoy ako.........
 
  D       A       C                 G
|-------------------------------------------------
|-------------------------------------------------
|-------------------------------------------------
|-------------------------------------------------
|-12------7-------10-10-10-10-10-10-5-5-5-5-5-5-5-
|-10------5-------8--8--8--8--8--8--3-3-3-3-3-3-3-


  D       A       C                 G
|-------------------------------------------------
|-------------------------------------------------
|-------------------------------------------------
|-------------------------------------------------
|-12------7-------10-10-10-10-10-10-5-5-5-5-5-5-5-
|-10------5-------8--8--8--8--8--8--3-3-3-3-3-3-3-


repeat intro
repeat verse

then,

  D       A      C       G
|--------------------------------------
|--------------------------------------
|--------------------------------------
|--------------------------------------
|-12------7------10------5-5-5-5-5-5-5-
|-10------5------8-------3-3-3-3-3-3-3-


chorus (4x)

solo:

|-------------------------------------------------
|------------------------------------------------- (just listen to the song
|-------------------------------------------------      for the timing)
|-7-7-9-9-11-11-3-3-3-4--1-1-7-7-11-11-7-7-7-7----
|-x-x-x-x-x--x--x-x-x-x--x-x-x-x-x--x--x-x-x-x----
|-5-5-7-7-9--9--4-4-4-4--3-3-5-5-9--9--5-5-5-5----


|-------------------------------------------------
|-------------------------------------------------
|-------------------------------------------------
|-7-7-9-9-11-11-3-3-3-4--1-1-7-7-11-11-7-7-7-7----
|-x-x-x-x-x--x--x-x-x-x--x-x-x-x-x--x--x-x-x-x----
|-5-5-7-7-9--9--4-4-4-4--3-3-5-5-9--9--5-5-5-5---- (feedback)


repeat intro
[ Tab from: http://www.guitartabs.cc/tabs/b/bamboo/noypi_tab_ver_4.html ]
then,

  D       A      C       G
|--------------------------------------
|--------------------------------------
|--------------------------------------
|--------------------------------------
|-12------7------10------5-5-5-5-5-5-5-
|-10------5------8-------3-3-3-3-3-3-3-

chorus:

 Hoy!!!                                  
 
  D                                      A   C                 G
|-------                  ---------------------------------------------------
|------- (rolling, drums) ---------------------------------------------------
|-------                  ---------------------------------------------------
|-------                  ---------------------------------------------------
|-12----                  ---------------7---10-10-10-10-10-10-5-5-5-5-5-5-5-
|-10----                  -(pick slide)--5---8--8--8--8--8--8--3-3-3-3-3-3-3-

 
  D         A       C                 G
|---------------------------------------------------
|--------------------------------------------------- 
|---------------------------------------------------
|---------------------------------------------------
|-12--------7-------10-10-10-10-10-10-5-5-5-5-5-5-5-
|-10--------5-------8--8--8--8--8--8--3-3-3-3-3-3-3-


  D         A       C                 G
|---------------------------------------------------
|---------------------------------------------------
|---------------------------------------------------
|---------------------------------------------------
|-12--------7-------10-10-10-10-10-10-5-5-5-5-5-5-5-
|-10--------5-------8--8--8--8--8--8--3-3-3-3-3-3-3-


  D         A       C                 G
|---------------------------------------------------
|---------------------------------------------------
|---------------------------------------------------
|---------------------------------------------------
|-12--------7-------10-10-10-10-10-10-5-5-5-5-5-5-5-
|-10--------5-------8--8--8--8--8--8--3-3-3-3-3-3-3-


outro:

|-------------------------------------------------
|-------------------------------------------------
|-------------------------------------------------
|-7-7-9-9-11-11-3-3-3-4--1-1-7-7-11-11-7-7-7-7----
|-x-x-x-x-x--x--x-x-x-x--x-x-x-x-x--x--x-x-x-x----
|-5-5-7-7-9--9--4-4-4-4--3-3-5-5-9--9--5-5-5-5----


|-------------------------------------------------
|-------------------------------------------------
|-------------------------------------------------
|-7-7-9-9-11-11-3-3-3-4--1-1-7-7-11-11-7-7-7-7----
|-x-x-x-x-x--x--x-x-x-x--x-x-x-x-x--x--x-x-x-x----
|-5-5-7-7-9--9--4-4-4-4--3-3-5-5-9--9--5-5-5-5----

end.......

corrections? suggestions? questions? comments?
please email me at etitskoymalaki@yahoo.com and farenheit_d_saint@yahoo.com
Comments