Bamboo - Noypi Chords & Tabs

 

Noypi Chords & Tabs

Bamboo Chords & Tabs

Version: 2 Type: Tab 0 ratings
1 star 2 stars 3 stars 4 stars 5 stars
comments

Noypi Tab

   
NOYPI 
Bamboo

Para sa mga solohista sa inuman!
wala lng away! NOYPI tayo!!!!!!!

Tuning: Standard Tuning (acoustic guitar lng pwede na)

Intro: Bass line

e|--------------------------------------------------------------------------|
B|--------------------------------------------------------------------------|
G|--------------------------------------------------------------------------|
D|--------------------------------------------------------------------------| 
A|--5----4/54----4--------2/32---3-----5-----4/54-----4-------2/32------|
E|----5---------5---8--3---------3----------5---------5-----8--3--------3---|

Verses:
  
          D                 A                   C

e|-------------------------------------------------------------------|
B|-------------------------------------------------------------------|
G|--7-7-7-7-7-7-7-7--------------------------------------------------|
D|--7-7-7-7-7-7-7-7--7-7-7-7-7-7-7-7---10-10-10-10-10-10-10-10-------|
A|--5-5-5-5-5-5-5-5--7-7-7-7-7-7-7-7---10-10-10-10-10-10-10-10-------|
E|-------------------5-5-5-5-5-5-5-5---8--8--8--8--8--8--8--8--------|
   |........................PM........................................|
          G

e|-------------------------|
B|-------------------------|
G|-------------------------|
D|--5-5-5-5-5-5-5-5--------|
A|--5-5-5-5-5-5-5-5--------|
E|--3-3-3-3-3-3-3-3--------|
   |...Palm Muting....|



Chorus

         D                 A                   C
[ Tab from: http://www.guitartabs.cc/tabs/b/bamboo/noypi_tab_ver_2.html ]
e|-------------------------------------------------------------------|
B|-------------------------------------------------------------------|
G|--7-7-7-7-7-7-7-7--------------------------------------------------|
D|--7-7-7-7-7-7-7-7--7-7-7-7-7-7-7-7---10-10-10-10-10-10-10-10-------|
A|--5-5-5-5-5-5-5-5--7-7-7-7-7-7-7-7---10-10-10-10-10-10-10-10-------|
E|-------------------5-5-5-5-5-5-5-5---8--8--8--8--8--8--8--8--------|
   Distorted ...up/down stroke......./ ..........down stroke only....
          G

e|-------------------------|
B|-------------------------|
G|-------------------------|
D|--5-5-5-5-5-5-5-5--------|
A|--5-5-5-5-5-5-5-5--------|
E|--3-3-3-3-3-3-3-3--------|
  ..................../ 

SOLO:

e|--xxx-xxx-xxx--x---xxx-xxx-xxx--x-----0--------|
B|--xxx-xxx-xxx--x---xxx-xxx-xxx--x-----0--------|
G|--xxx-xxx-xxx--x---xxx-xxx-xxx--x-----0--------|
D|--xxx-xxx-xxx--x---xxx-xxx-xxx--x-----0--------| 
A|--555-777-999--4---333-555-777--2-----0--------|
E|--xxx-xxx-xxx--x---xxx-xxx-xxx--x-----0--------|
                                       P.M.
                        
e|--xxx-xxx-xxx--x---xxx-xxx-xxx--x--x-x-x-----------------|
B|--xxx-xxx-xxx--x---xxx-xxx-xxx--x--x-x-x-----------------|
G|--xxx-xxx-xxx--x---xxx-xxx-xxx--x--x-x-x----7------------|
D|--xxx-xxx-xxx--x---xxx-xxx-xxx--x--x-x-x----7-(pause}----| 
A|--555-777-999--4---333-555-777--2--4-5-7----5------------|
E|--xxx-xxx-xxx--x---xxx-xxx-xxx--x--x-x-x-----------------|

Pakinggan nyo na lng para mas maganda!!
sana magustuhan nyo.

Chungkitos@yahoo.com



Comments