Bamboo - Noypi Chords & Tabs

 

Noypi Chords & Tabs

Bamboo Chords & Tabs

Version: 7 Type: Bass Tab 0 ratings
1 star 2 stars 3 stars 4 stars 5 stars
comments

Noypi Bass Tab

   
ando972003@yahoo.com

chords: D-Am-C-G

intro
1|---------------------------|
2|---------------------------|
3|-5---4h5p4---4-3-2h3p2-2---|
4|---5-------5-------------3-|

1|---------------------------|
2|---------------------------|
3|-5---4h5p4---4-3-2h3p2-2---|
4|---5-------5-------------3-|
verse
1|---------------------------|
2|---------------------------|
3|-5---4h5p4---4-3-2h3p2-2---|
4|---5-------5-------------3-|

1|---------------------------|
2|---------------------------|
3|-5---4h5p4---4-3-2h3p2-2---|
4|---5-------5-------------3-|
pre-chorus
1|-------------------------------------------------------|
2|-------------------------------------------------------|
3|-5--5-5-5-5------------3-3-3-3-3-3-3-3-----------------|
4|------------5--5-5-5-5-----------------3-3-3-3-3-3-3-3-|

1|-------------------------------------------------------|
2|-------------------------------------------------------|
3|-5--5-5-5-5------------3-3-3-3-3-3-3-3-----------------|
4|------------5--5-5-5-5-----------------3-3-3-3-3-3-3-3-|

chorus
1|-------------------------------------------------------|
2|-------------------------------------------------------|
3|-5--5-5-5-5------------3-3-3-3-3-3-3-3-----------------|
4|------------5--5-5-5-5-----------------3-3-3-3-3-3-3-3-|
[ Tab from: http://www.guitartabs.cc/tabs/b/bamboo/noypi_btab_ver_7.html ]
1|-------------------------------------------------------|
2|-------------------------------------------------------|
3|-5--5-5-5-5------------3-3-3-3-3-3-3-3-----------------|
4|------------5--5-5-5-5-----------------3-3-3-3-3-3-3-3-|

   (repeat intro)

verse2
1|---------------------------|
2|---------------------------|
3|-5---4h5p4---4-3-2h3p2-2---|
4|---5-------5-------------3-|

1|---------------------------|
2|---------------------------|
3|-5---4h5p4---4-3-2h3p2-2---|
4|---5-------5-------------3-|

  (repeat pre-chorus)
  (repeat chorus)

adlib
1|-------------------------------------------------------|
2|-------------------------------------------------------|
3|-5--5-5-5-5------------3-3-3-3-3-3-3-3-----------------|
4|------------5--5-5-5-5-----------------3-3-3-3-3-3-3-3-|

1|-------------------------------------------------------|
2|-------------------------------------------------------|
3|-5--5-5-5-5------------3-3-3-3-3-3-3-3-----------------|
4|------------5--5-5-5-5-----------------3-3-3-3-3-3-3-3-|

  (repeat intro)
  (repeat pre-chorus)
  (repeat chorus)

and so on 
ayus ba?
 Legend:
	h=hammer on
	p=pull off



dedicated ito sa mga kakilala ko at sa mga kabandista kong sina:
	Dennis Fajardo(na syang master ko) ,Feorelle Sison,
        noel sebastian,Raeshan Perez
	James Nuguit,Kenett De Dios,Conrad Mark Torres
	ATBP.
pati narin kay Julius Sandell (na nang "wre-wrestling" ng pusa!)
at Jonatahan Sabino (na kalyado na ang kamay kakagitara)
Comments