Bamboo - Noypi Chords & Tabs

 

Noypi Chords & Tabs

Bamboo Chords & Tabs

Version: 4 Type: Bass Tab 0 ratings
1 star 2 stars 3 stars 4 stars 5 stars
comments

Noypi Bass Tab

noypi
bamboo
bass tab

--------6h7------7--5--4h5-----------|
-----7-------7--------------5---7----|
--5----------------------------------| 2x
-------------------------------------|

...tingnan mo.........
-------------------------------------|
-------------------------------------|
--5-7-------3-5----------------------| 2x
-------5-7-------3-5-----------------|

..saan ka man...
-----------------------------------------------------|
-----------------------------------------------------|
-555555-77-------------333333-55---------------------| 1x
------------555555-77------------33333355333333------|

..Hoy, pinoy ako!
-----------------------------------------------------|
-----------------------------------------------------|
-5-5-7-7----------333333-55--------------------------| 2x
----------5-5-7-7------------333333-55---------------|

--------6h7------7--5--4h5-----------|
-----7-------7--------------5---7----|
--5----------------------------------| 2x
-------------------------------------|

...sinisid mo..
-------------------------------------|
-------------------------------------|
--5-7-------3-5----------------------| 2x
-------5-7-------3-5-----------------|

..ang sabi nila..
-----------------------------------------------------|
-----------------------------------------------------|
-555555-77-------------333333-55---------------------| 1x
------------555555-77------------333333-55-----------|
[ Tab from: http://www.guitartabs.cc/tabs/b/bamboo/noypi_btab_ver_4.html ]
..Hoy, pinoy ako!
-----------------------------------------------------|
-----------------------------------------------------|
-5-5-7-7----------333333-55--------------------------| 2x
----------5-5-7-7------------333333-55---------------|

..wooooohohoho hmmmm....
-----------------------------------------------------|
-----------------------------------------------------|
-5-5-7-7----------333333-55--------------------------|
----------5-5-7-7------------333333-55---------------|

SOLO:
-----------------------------------------------------|
-----------------------------------------------------|
-555555-77-------------333333-55---------------------|
------------555555-77------------333333-55-----------|

---------------------------------------------|
---------------------------------------------|
-5-7-------3-5-------------------------------|
------5-7-------3-5--------------------------|

..dinig mo ba..
--------------------------------------------------|
--------------------------------------------------|
-555555-77-------------333333-55------------------|
------------555555-77------------333333553333333--|

..Hoy, pinoy ako!
------------------------------------------------------|
------------------------------------------------------|
-5-pause-----------333333-55--------------------------| 2x
----------5-5-7-7------------333333-55----------------|

..wooooohohoho hmmmm....
-----------------------------------------------------|
-----------------------------------------------------|
-5-5-7-7----------333333-55--------------------------|
----------5-5-7-7------------333333-55---------------|

SOLO:
-----------------------------------------------------|
-----------------------------------------------------|
-555555-77-------------333333-55-----------5---------|
------------555555-77------------333333-55-----------|
Comments