Bamboo - Noypi Chords & Tabs

 

Noypi Chords & Tabs

Bamboo Chords & Tabs

Version: 3 Type: Bass Tab 0 ratings
1 star 2 stars 3 stars 4 stars 5 stars
comments

Noypi Bass Tab

intro:
g ----------------------------------
d ----7---------7-------------------
a -5-----4h5p4-----4-3----2h3p2-----
e ------------------------------3-5-

g ----------------------------------
d ----7-----------------------------
a -5-----4h5p4-5h7-4-3----2h3p2-----
e ------------------------------3-5-

*intro b4 d 1st verse nd d 2nd verse..
[ Tab from: http://www.guitartabs.cc/tabs/b/bamboo/noypi_btab_ver_3.html ]
verse:
g -----------------------------------------------------------------
d -----------------------------------------------------------------
a -5-5-5-5-5-5-5-5-----------------3-3-3-3-3-3-3-3-----------------
e -----------------5-5-5-5-5-5-5-5-----------------3-3-3-3-3-3-3-3-

chorus:
g -----------------------------------------------------------------
d -----------------------------------------------------------------
a -5---5-5--5----------------------3-3-3-3-3-3-3-3-----------------
e -----------------5---5-5--5----------------------3-3-3-3-3-3-3-3-
Comments