Bamboo - Noypi Chords & Tabs

 

Noypi Chords & Tabs

Bamboo Chords & Tabs

Version: 2 Type: Bass Tab 0 ratings
1 star 2 stars 3 stars 4 stars 5 stars
comments

Noypi Bass Tab

   
============================================================================
Noypi- Bamboo
Bass Tab
Tabbed by; Dirk Lance!!!! (Or Augustus Cesar B. Abesamis)
============================================================================
Keys to be used:
/ or \ = Slide
* = Let ring
X = Dead String
b = Break
h = Hammer
p = Pull

OK!! Wait lang! Paunawa! Yung Intro Bass yan hindi Guitar!!

INTRO
G|--7---6h7p6-----5-4h5p4-------|
D|----7-------7/9---------5-----| 
A|------------------------------|
E|------------------------------|

G|--7---6h7p6-----5-4h5p4-------|
D|----7-------7/9---------5-7---| 
A|------------------------------|
E|------------------------------|

VERSE 1
G|---------------------|
D|---------------------| x2
A|--5-7-----3-5--------|
E|------5-7-----3-5----|

VERSE (Special) 
G|--------------------------------------------------------------------|
D|--------------------------------------------------------------------| 
A|--5-5-5-5-5-5-7-7-----------------3-3-3-3-3-3-5-5-------------------|
E|------------------5-5-5-5-5-5-7-7-----------------3-3-3-3-3... x16 yung 3 sa Verse 1 b4 Chorus

CHORUS 1
G|------------------------------------------------------|
D|------------------------------------------------------|
A|-5-55-5--------3-3-3-3-3-3-3-3------------------------|
E|--------5-55-5-----------------3-3-3-3-3-3-3-3--------|

G|--------------------------------------------------------------------|
D|--------------------------------------------------------------------| 
A|--5-5-5-5-5-5-5-5-----------------3-3-3-3-3-3-3-3-------------------|
E|------------------5-5-5-5-5-5-5-5-----------------3-3-3-3-3-3-3-3---|

FILL
G|--7---6h7p6-----5-4h5p4-------|
D|----7-------7/9---------5-----| 
A|------------------------------|
E|------------------------------|

G|--7---6h7p6-----5-4h5p4-------|
D|----7-------7/9---------5-7---| 
A|------------------------------|
E|------------------------------|

Or kung gusto niyo nung Bass sa live na version etoh...

FILL (Live Version)
G|--7---6h7p6-6/9-7-6-4h5p4h5p4h5---7------------------------4h5p4h5p4h5---|
D|----7---------------------------5---777777-9-10-10/12-10-9-------------5-|
A|-------------------------------------------------------------------------|
E|-------------------------------------------------------------------------|

VERSE 2
G|---------------------|
D|---------------------| x2
A|--5-7-----3-5--------|
E|------5-7-----3-5----|

Verse (Special)
G|--------------------------------------------------------------------|
D|--------------------------------------------------------------------| 
A|--5-5-5-5-5-5-7-7-----------------3-3-3-3-3-3-5-5-------------------|
E|------------------5-5-5-5-5-5-7-7-----------------3-3-3-3-3-3-5-5---|

CHORUS 2
G|------------------------------------------------------|
D|------------------------------------------------------|
A|-5-55-5--------3-3-3-3-3-3-3-3------------------------|
E|--------5-55-5-----------------3-3-3-3-3-3-3-3--------|
[ Tab from: http://www.guitartabs.cc/tabs/b/bamboo/noypi_btab_ver_2.html ]
G|--------------------------------------------------------------------|
D|--------------------------------------------------------------------| 
A|--5-5-5-5-5-5-5-5-----------------3-3-3-3-3-3-3-3-------------------|
E|------------------5-5-5-5-5-5-5-5-----------------3-3-3-3-3-3-3-3---|

Oooohhhhhhhh Oh ho ho......
G|--------------------------------------------------------------------|
D|--------------------------------------------------------------------| x2
A|--5-5-5-5-5-5-5-5-----------------3-3-3-3-3-3-3-3-------------------|
E|------------------5-5-5-5-5-5-5-5-----------------3-3-3-3-3-3-3-3---|

BRIDGE
G|--------------------------------------------------------------------|
D|--------------------------------------------------------------------| x2
A|--5-5-5-5-5-5-5-5-----------------3-3-3-3-3-3-3-3-------------------|
E|------------------5-5-5-5-5-5-5-5-----------------3-3-3-3-3-3-3-3---|

OR...

BRIDGE (Variation)
G|------------------------------------------------|
D|------------------------------------------------| 
A|--5-5/7-9-------------3-3/5-7-------------------|
E|----------5-5-5-5-5-5---------3-3-3-3-X-X-X-X---|

G|-------------------------------------------|
D|-------------------------------------------| 
A|--5-5/7-9-------------3-3/5-7--------------|
E|----------5-5-5-5-5-5---------3-3/5-7------|

VERSE 3
G|---------------------|
D|---------------------| x2
A|--5-7-----3-5--------|
E|------5-7-----3-5----|

G|---------------------|
D|---------------------| 
A|--5-7-----3-5--------|
E|------5-7-----3333... x16

CHORUS 3
G|-------------------------------------------------------------|
D|----   DRUM   -----------------------------------------------|
A|-5b-   ROLL   --------3-3-3-3-3-3-3-3------------------------|
E|---------------5-55-5-----------------3-3-3-3-3-3-3-3--------|

G|--------------------------------------------------------------------|
D|--------------------------------------------------------------------| 
A|--5-5-5-5-5-5-5-5-----------------3-3-3-3-3-3-3-3-------------------|
E|------------------5-5-5-5-5-5-5-5-----------------3-3-3-3-3-3-3-3---|

Oooohhhhhhhh Oh ho ho......
G|--------------------------------------------------------------------|
D|--------------------------------------------------------------------| x2
A|--5-5-5-5-5-5-5-5-----------------3-3-3-3-3-3-3-3-------------------|
E|------------------5-5-5-5-5-5-5-5-----------------3-3-3-3-3-3-3-3---|

OUTRO
G|--------------------------------------------------------------------|
D|--------------------------------------------------------------------| x2
A|--5-5-5-5-5-5-5-5-----------------3-3-3-3-3-3-3-3-------------------|
E|------------------5-5-5-5-5-5-5-5-----------------3-3-3-3-3-3-3-3---|

OR...

OUTRO (Variation)
G|------------------------------------------------|
D|------------------------------------------------| 
A|--5-5/7-9-------------3-3/5-7-------------------|
E|----------5-5-5-5-5-5---------3-3-3-3-3-3-3-3---|

G|-------------------------------------------|
D|-------------------------------------------| 
A|--5-5/7-9-------------3-3/5-7--------------|
E|----------5-5-5-5-5-5---------3-3/5-7------|

END WITH
G|------|
D|------| 
A|--5*--|
E|------|

Dedicated to my Band!!!! BrEakThrOugH. (Gino, Barcy, Kevz and Marc)
Contact me acba08@hotmail.com (Comments and corrections.)
Comments