Bamboo - Mrclay Chords & Tabs

 

Mrclay Chords & Tabs

Bamboo Chords & Tabs

Version: 1 Type: Bass Tab 0 ratings
1 star 2 stars 3 stars 4 stars 5 stars
comments

Mrclay Bass Tab

Mr. CLay 
intro/ verse

G||--------------------------|
D||--------------------------|
A||--------------------------|
E||--3--5--------------------|

minsan

G||--------------------------|
D||--------------------------|
A||--------------------------|
E||--3--5-12----------------|

pakinggan niyo para alam niyo kung papano
paglaruan lang yan dalawa lang

pre chorus

G||---------------------------------------|
D||---------------------------------------|
A||---------------------------------------|
E||--1-1-1-1-1-1-1-3-3-3-3-3-3-3-3--------|

chorus

G||------------------------------------------------------|
D||------------------------------------------------------|
A||------------------------------------------------------|
E||--3--5--1--3--3--5--1--3-1-1-1-1-3-1-1-1-1-3-1-1-1-1--|

balik sa verse
[ Tab from: http://www.guitartabs.cc/tabs/b/bamboo/mrclay_btab.html ]
1st part ng bridge
G||--------------------------|
D||--------------------------|
A||--------------------------|
E||--3-h-5-------------------|
paglaruan lang uli

2nd part

G||--------------------------------------------------------------------------------|
D||--------------------------------------------------------------------------------|
A||--------------------------------------------------------------------------------|
E||-3-3-3-5-7--5-5-5-7-9--1-1-1-3-5--3-3-3-5-7--3-3-3-5-7--5-5-5-7-9--1-1-1-3-5--3-|

G||---------------------------------------------|
D||---------------------------------------------|
A||---------------------------------------------|
E||--3-3--1-1-1-3--1-1-1-3--1-1-1--3-5-3-5-3-5--|
                                   |         |
				    |,,,,,,,|
 				        |
				yung pinaglalaruan lang hanggang mag break

 guitaristangpinoy@yahoo.com
add nyo na rin sa friendster
Comments