Bamboo - Mr Clay Chords & Tabs

 

Mr Clay Chords & Tabs

Bamboo Chords & Tabs

Version: 4 Type: Bass Tab

Mr Clay Bass Tab

Mr. Clay

This is my favorite song of bamboo..

I'm not so sure about this tab... But this is how I hear it...
listen to the song para sa timing :D...

Intro
G|----------|---------------------|
D|----------|---------------------|
A|7-7--7-7--|7-10-7-7-7--8-8--8-8-|
E|----------|---------------------|

G|---------------------|--------------------|------|
D|---------------------|--------------------|------|
A|7-9-7-7-7--9-9--9-9--|7-9-7-7-7--8-8--8-8-|7-10-7|
E|---------------------|--------------------|------|

G|----------|---------------------|
D|----------|---------------------|
A|7-7--7-7--|7-10-7-7-7--8-8--8-8-|
E|----------|---------------------|

G|---------------------|--------------------|------|
D|---------------------|--------------------|------|
A|7-9-7-7-7--9-9--9-9--|7-9-7-7-7--8-8--8-8-|7-10-7|
E|---------------------|--------------------|------|


Verse 1 
G|----------|---------------------|
D|----------|---------------------|
A|7-7--7-7--|7-10-7-7-7--8-8--8-8-|
E|----------|---------------------|

G|---------------------|--------------------|------|
D|---------------------|--------------------|------|
A|7-9-7-7-7--9-9--9-9--|7-9-7-7-7--8-8--8-8-|7-10-7|
E|---------------------|--------------------|------|

G|----------|---------------------|
D|----------|---------------------|
A|7-7--7-7--|7-10-7-7-7--8-8--8-8-|
E|----------|---------------------|

G|---------------------|--------------------|------|
D|---------------------|--------------------|------|
A|7-9-7-7-7--9-9--9-9--|7-9-7-7-7--8-8--8-8-|7-10-7|
E|---------------------|--------------------|------|

G|----------|---------------------|
D|----------|---------------------|
A|7-7--7-7--|7-10-7-7-7--8-8--8-8-|
E|----------|---------------------|

G|---------------------|---------------------------|
D|---------------------|---------------------------|
A|7-9-7-7-7--9-9--9-9--|x/8-8--8-8-8--8-8-8--8-8-8-|
E|---------------------|---------------------------|

G|-------------------------------------|
D|-------------------------------------|
A|/10-10--10-10-10--10-10-10--10-10-10-|
E|-------------------------------------|

Verse 2 
G|----------|---------------------|
D|----------|---------------------|
A|7-7--7-7--|7-10-7-7-7--8-8--8-8-|
E|----------|---------------------|

G|---------------------|--------------------|------|
D|---------------------|--------------------|------|
A|7-9-7-7-7--9-9--9-9--|7-9-7-7-7--8-8--8-8-|7-10-7|
E|---------------------|--------------------|------|

G|----------|---------------------|
D|----------|---------------------|
A|7-7--7-7--|7-10-7-7-7--8-8--8-8-|
E|----------|---------------------|

G|---------------------|--------------------|------|
D|---------------------|--------------------|------|
A|7-9-7-7-7--9-9--9-9--|7-9-7-7-7--8-8--8-8-|7-10-7|
E|---------------------|--------------------|------|

G|----------|---------------------|
D|----------|---------------------|
A|7-7--7-7--|7-10-7-7-7--8-8--8-8-|
E|----------|---------------------|

G|---------------------|---------------------------|
D|---------------------|---------------------------|
A|7-9-7-7-7--9-9--9-9--|x/8-8--8-8-8--8-8-8--8-8-8-|
E|---------------------|---------------------------|

G|-------------------------------------|
D|-------------------------------------|
A|/10-10--10-10-10--10-10-10--10-10-10-|
E|-------------------------------------|

Chorus

G|--------------|--------------|---------------|---------------------|
D|5-5-5-5-5-5-5-|--------------|---------------|---------------------|
A|--------------|6-6-6-6-6-6-6-|/8-8-8-8-8-8-8-|10-10-10-10-10-10-10-|
E|--------------|--------------|---------------|---------------------|

G|--------------|--------------|---------------|
D|5-5-5-5-5-5-5-|--------------|---------------|
A|--------------|6-6-6-6-6-6-6-|/8-8-8-8-8-8-8-|
E|--------------|--------------|---------------|

Strum this pattern

G|xx--x-x-x-xx--x-x-x-xx--x-x-x|
D|xx--x-x-x-xx--x-x-x-xx--x-x-x|
A|10--8-8-8-10--8-8-8-10--8-8-8|
E|xx--x-x-x-xx--x-x-x-xx--x-x-x|

Intro for verse 3

G|----------|---------------------|
D|----------|---------------------|
A|7-7--7-7--|7-10-7-7-7--8-8--8-8-|
E|----------|---------------------|

G|---------------------|--------------------|------|
D|---------------------|--------------------|------|
A|7-9-7-7-7--9-9--9-9--|7-9-7-7-7--8-8--8-8-|5/10\x|
E|---------------------|--------------------|------|

Verse 3 
[ Tab from: http://www.guitartabs.cc/tabs/b/bamboo/mr_clay_btab_ver_4.html ]
G|-------------|--------------|--------------|--------------|
D|-------------|--------------|--------------|--------------|
A|7-7-7-7-7-7-7|-8-8-8-8-8-8-8|-9-9-9-9-9-9-9|-8-8-8-8-8-8-8|
E|-------------|--------------|--------------|--------------|

G|-------------|--------------|--------------|--------------|
D|-------------|--------------|--------------|--------------|
A|7-7-7-7-7-7-7|-8-8-8-8-8-8-8|-9-9-9-9-9-9-9|-8-8-8-8-8-8-8|
E|-------------|--------------|--------------|--------------|

G|-------------|--------------|--------------|
D|-------------|--------------|--------------|
A|7-7-7-7-7-7-7|-8-8-8-8-8-8-8|-9-9-9-9-9-9-9|
E|-------------|--------------|--------------|

G|---------------------------|
D|---------------------------|
A|x/8-8--8-8-8--8-8-8--8-8-8-|
E|---------------------------|

G|-------------------------------------|
D|-------------------------------------|
A|/10-10--10-10-10--10-10-10--10-10-10-|
E|-------------------------------------|

Chorus

G|--------------|--------------|---------------|---------------------|
D|5-5-5-5-5-5-5-|--------------|---------------|---------------------|
A|--------------|6-6-6-6-6-6-6-|/8-8-8-8-8-8-8-|10-10-10-10-10-10-10-|
E|--------------|--------------|---------------|---------------------|

G|--------------|--------------|---------------|
D|5-5-5-5-5-5-5-|--------------|---------------|
A|--------------|6-6-6-6-6-6-6-|/8-8-8-8-8-8-8-|
E|--------------|--------------|---------------|

Strum this pattern

G|xx--x-x-x-xx--x-x-x-xx--x-x-x|
D|xx--x-x-x-xx--x-x-x-xx--x-x-x|
A|10--8-8-8-10--8-8-8-10--8-8-8|
E|xx--x-x-x-xx--x-x-x-xx--x-x-x|

Adlib
G|---------------------------|---------------------------|
D|---------------------------|---------------------------|
A|-12-12-12-12-12-12-10-10-12|-12-12-12-12-12-12-10-10-12|
E|---------------------------|---------------------------|

G|---------------------------|---------------------------|
D|---------------------------|---------------------------|
A|-12-12-12-12-12-12-10-10-12|-12-12-12-12-12-12-12-12-12|
E|---------------------------|---------------------------|

G|------------------------------------------|
D|-------9-10-11--------9-10-11-------------|
A|-10-12----------12-13---------------------|
E|------------------------------------------|

G|------------------------------------------|
D|-------7-8-9--------9-10-11---------------|
A|--8-10--------10-11-----------------------|
E|------------------------------------------|

G|------------------------------------------|
D|-------9-10-11--------9-10-11-------------|
A|-10-12----------12-13---------------------|
E|------------------------------------------|

G|------------|xx--x-x-x-xx--x-x-x-xx--x-x-x|
D|-------7-8-9|xx--x-x-x-xx--x-x-x-xx--x-x-x|
A|--8-10------|10--8-8-8-10--8-8-8-10--8-8-8|
E|------------|xx--x-x-x-xx--x-x-x-xx--x-x-x|
Intro...

G|--------------|--------------|---------------|-------------/7|
D|--------------|--------------|-------------/7|---------------|
A|--------------|--------------|---------------|---------------|
E|--------------|--------------|---------------|---------------|


Verse 4 

G|----------|---------------------|
D|----------|---------------------|
A|7-7--7-7--|7-10-7-7-7--8-8--8-8-|
E|----------|---------------------|

G|---------------------|--------------------|------|
D|---------------------|--------------------|------|
A|7-9-7-7-7--9-9--9-9--|7-9-7-7-7--8-8--8-8-|7-10-7|
E|---------------------|--------------------|------|

G|----------|---------------------|
D|----------|---------------------|
A|7-7--7-7--|7-10-7-7-7--8-8--8-8-|
E|----------|---------------------|

G|---------------------|---------------------------|
D|---------------------|---------------------------|
A|7-9-7-7-7--9-9--9-9--|x/8-8--8-8-8--8-8-8--8-8-8-|
E|---------------------|---------------------------|

G|-------------------------------------|
D|-------------------------------------|
A|/10-10--10-10-10--10-10-10--10-10-10-|
E|-------------------------------------|

Chorus

G|--------------|--------------|---------------|---------------------|
D|5-5-5-5-5-5-5-|--------------|---------------|---------------------|
A|--------------|6-6-6-6-6-6-6-|/8-8-8-8-8-8-8-|10-10-10-10-10-10-10-|
E|--------------|--------------|---------------|---------------------|

G|--------------|--------------|---------------|
D|5-5-5-5-5-5-5-|--------------|---------------|
A|--------------|6-6-6-6-6-6-6-|/8-8-8-8-8-8-8-|
E|--------------|--------------|---------------|

Strum this pattern

G|xx--x-x-x-xx--x-x-x-xx--x-x-x|
D|xx--x-x-x-xx--x-x-x-xx--x-x-x|
A|10--8-8-8-10--8-8-8-10--8-8-8|
E|xx--x-x-x-xx--x-x-x-xx--x-x-x|


Have fun!


Tabbed By: Ron Estrella
Bassist of the band Sentiments


\m/
Rock On!