Bamboo - Mr Clay Chords & Tabs

 

Mr Clay Chords & Tabs

Bamboo Chords & Tabs

Version: 3 Type: Bass Tab 0 ratings
1 star 2 stars 3 stars 4 stars 5 stars
comments

Mr Clay Bass Tab

Mr.clay
Bamboo
tabbed by: -isotopes- shinta

Guys... hirs some tabs of mr.clay that i made.. hope u like it...
please paki rank nalang itong tabs na ito... thanks...

intro
G------------------------------------------------|
D------------------------------------------------|
A------------------------------------------------|4x
E--3h5--5-5--555---3h5--5-5--555-----------------|

verse1
   red sun...
G------------------------------------------------|
D------------------------------------------------|
A------------------------------------------------|6x
E--3h5--5-5--555---3h5--5-5--555-----------------|

G--------------------------------------------------------|
D--------------------------------------------------------|
A---8-8-8-8-8-8-8-8---10-10-10-10-10-10-10-10------------|
E--------------------------------------------------------|

G------------------------------------------------|
D------------------------------------------------|
A------------------------------------------------|4x
E--3h5--5-5--555---3h5--5-5--555-----------------|

G--------------------------------------------------------|
D--------------------------------------------------------|
A---8-8-8-8-8-8-8-8---10-10-10-10-10-10-10-10------------|
E--------------------------------------------------------|

...chorus
G---------------------------------------------------------------------------------|
D---------------------------------------------------------------------------------|
A---------------------------------------8-8-8-8-8-8-8-8---10-10-10-10-10-10-10-10-|
E---3-3-3-3-3-3-3-3---5-5-5-5-5-5-5-5---------------------------------------------|

G------------------------------------------|
D------------------------------------------|
A----8-8-8--10-10----8-8-8--10-10----------|
E------------------------------------------|


G---------------------------------------------------------------------------------|
D---------------------------------------------------------------------------------|
A---------------------------------------------------------------------------------|
E--3h5--5-5--555---3h5--5-5--555---3h5--5-5--555---3h5--5-5--555--\--12-/---------|
[ Tab from: http://www.guitartabs.cc/tabs/b/bamboo/mr_clay_btab_ver_3.html ]
verse2
      talk to much.....
G--------------------------------------------------------------------------------------|
D--------------------------------------------------------------------------------------|
A--------------------------------------------------------------------7-5---------------|
E--5-5-5-5-5---555---5-5-5-5-5---555---5-5-5-5-5---555---5-5-5-5-5--------7-6-5--------|

G--------------------------------------------------------------------------------------|
D--------------------------------------------------------------------------------------|
A--------------------------------7-5--------------------------------------7-5----------|
E--5-5-5-5-5---555---5-5-5-5-5--------7-6-5---5-5-5-5-5--555---5-5-5-5-5-------7-6-5---|

G------------------------------------------------------------------------------------------------------|
D------------------------------------------------------------------------------------------------------|
A--------------------------------7-5------------------------8-8-8-8-8-8-8-8---10-10-10-10-10-10-10-10--|
E--5-5-5-5-5---555---5-5-5-5-5--------7-6-5-----5-5-5-5-5\---------------------------------------------|


...repeat chorus

adlib
G--------------------------------------|
D---7------------7-------------7-------|
A-----5---3--5-----5---3--5------5-----|4X
E--------------------------------------|

G-----------------------------------------------------------------|
D-------9-10-12----------9-10-12--------7-8-10-----------9-10-12--|
A----10----------12-12-x----------8-8-x---------10-10-x-----------|
E-----------------------------------------------------------------|

G------------------------------------------------------------------------|
D------------10-12----------9-10-12--------7-8-10------------------------|
A----10-10-x--------12-12-x----------8-8-x---------10--8-8-8--10--8-8-8--|
E------------------------------------------------------------------------|

G------------------------------|
D----\--15--15h16--------------|
A------------------12----------|
E--5-------------------12/--5--|


G----------------------------------------------------------------------------------------|
D----------------------------------------------------------------------------------------|
A----------------------------------------------------------------------------------------|
E--3h5--5-5--5-5---5---3h5--5-5--5-5---5---3h5--5-5--55---5---3h5--5-5--5--5-555---------|

G-----------------------------------------------------------------------------------------|
D-----------------------------------------------------------------------------------------|
A----------------------------------------------8-8-8-8-8-8-8-8---10-10-10-10-10-10-10-10--|
E--3h5--5-5-555--3h5--5-5-555---3h5--5-5-555----------------------------------------------|


repeat chorus

...end...

comments...comments...comments... email me: mitsui2004@yahoo.com  #09202555952
Comments