Bamboo - Mr Clay Chords & Tabs

 

Mr Clay Chords & Tabs

Bamboo Chords & Tabs

Version: 1 Type: Bass Tab 0 ratings
1 star 2 stars 3 stars 4 stars 5 stars
comments

Mr Clay Bass Tab

tabbed by: ulo (etitskoymalaki@yahoo.com)

song:   mr.clay
band:   bamboo
album:  kamikazee
tuning: EADG


Intro:

4/4
|-----------------|-----------------|-----------------|-----------------|
|-----------------|-----------------|-----------------|-----------------|(2x)
|-----------------|-----------------|-----------------|-----------------|
|-5-5-x-5---5-5-5-|-5-5-x-5---5-5-5-|-5-5-x-5---5-5-5-|-5-5-x-5---5-5-5-|


Verse1:

|-----------------|-----------------|-----------------|-----------------|
|-----------------|-----------------|-----------------|-----------------|(2x)
|-----------------|-----------------|-----------------|-----------------|
|-5-5-x-5---5-5-5-|-5-5-x-5---5-5-5-|-5-5-x-5---5-5-5-|-5-5-x-5---5-5-5-|

|-----------------|-----------------|-----------------|
|-----------------|-----------------|-----------------|
|-----------------|-----------------|-----------------|
|-5-5-x-5---5-5-5-|-5-5-x-5---5-5-5-|-5-5-x-5---5-5-5-|

|-----------------|-----------------|
|-3-3-3-3-3-3-3-3-|-5-5-5-5-5-5-5-5-|
|-----------------|-----------------|
|-----------------|-----------------|


Verse2:

|-----------------|-----------------|-----------------|-----------------|
|-----------------|-----------------|-----------------|-----------------|
|-----------------|-----------------|-----------------|-----------------|
|-5-5-x-5---5-5-5-|-5-5-x-5---5-5-5-|-5-5-x-5---5-5-5-|-5-5-x-5---5-5-5-|

|-----------------|-----------------|-----------------|
|-----------------|-----------------|-----------------|
|-----------------|-----------------|-----------------|
|-5-5-x-5---5-5-5-|-5-5-x-5---5-5-5-|-5-5-x-5---5-5-5-|

|-----------------|-----------------|
|-3-3-3-3-3-3-3-3-|-5-5-5-5-5-5-5-5-|
|-----------------|-----------------|
|-----------------|-----------------|


Chorus:

|-----------------|-----------------|-----------------|-----------------|
|-----------------|-----------------|-3-3-3-3-3-3-3-3-|-5-5-5-5-5-5-5-5-|
|-----------------|-----------------|-----------------|-----------------|
|-3-3-3-3-3-3-3-3-|-5-5-5-5-5-5-5-5-|-----------------|-----------------|

|-----------------|-----------------|-----------------|
|-----------------|-----------------|-3-3-3-3-3-3-3-3-|
|-----------------|-----------------|-----------------|
|-3-3-3-3-3-3-3-3-|-5-5-5-5-5-5-5-5-|-----------------|

|-----------------|-----------------|-----------------|
|-5-5-5-5-x-3-3-3-|-5-5-5-5-x-3-3-3-|-5-5-5-5-x-3-3-3-|
|-----------------|-----------------|-----------------|
|-----------------|-----------------|-----------------|


Post-chorus:

|-----------------|-----------------|-----------------|--------------------|
|-----------------|-----------------|-----------------|--------------------|
|-----------------|-----------------|-----------------|--------------------|
|-5-5-x-5---5-5-5-|-5-5-x-5---5-5-5-|-5-5-x-5---5-5-5-|-5-5-x-5---5-5-5/17-|


Verse3:
[ Tab from: http://www.guitartabs.cc/tabs/b/bamboo/mr_clay_btab.html ]
|-----------------|-----------------|-----------------|-----------------|
|-----------------|-----------------|-----------------|-----------------|(2x)
|-----------------|-----------------|-----------------|-----------------|
|-5-5-x-5---5-5-5-|-5-5-x-5---5-5-5-|-5-5-x-5---5-5-5-|-5-5-x-5---5-5-5-|

|-----------------|-----------------|-----------------|
|-----------------|-----------------|-----------------|
|-----------------|-----------------|-----------------|
|-5-5-x-5---5-5-5-|-5-5-x-5---5-5-5-|-5-5-x-5---5-5-5-|

|-----------------|-----------------|
|-3-3-3-3-3-3-3-3-|-5-5-5-5-5-5-5-5-|
|-----------------|-----------------|
|-----------------|-----------------|


(repeat Chorus)


Bridge:

4/4
|----------------------|
|-7-------7-------7----|(4x)
|---5-------5-------5--|
|-----8-5-----8-5------|


6/8
|------------------|------------------|--------------|------------------|
|----------9-10-12-|----------9-10-12-|-------7-8-10-|----------9-10-12-|
|-10-10-10---------|-12-12-12---------|-8-8-8--------|-10-10-10---------|
|------------------|------------------|--------------|------------------|

|------------------|------------------|--------------|
|----------9-10-12-|----------9-10-12-|-------7-8-10-|
|-10-10-10---------|-12-12-12---------|-8-8-8--------|
|------------------|------------------|--------------|

|----------------|----------------|----------------|
|----------------|----------------|----------------|
|-10-10-10-x-8-8-|-10-10-10-x-8-8-|-10-10-10-x-8-8-|
|----------------|----------------|----------------|


4/4
|---------|s14-------|----------|---------|
|---------|----------|----------|---------|
|---------|-------12-|-0--------|---------|
|-5-------|----------|-------12s|-5(pause)|


Verse4:

|-----------------|-----------------|-----------------|-----------------|
|-----------------|-----------------|-----------------|-----------------|
|-----------------|-----------------|-----------------|-----------------|
|-5-5-x-5---5-5-5-|-5-5-x-5---5-5-5-|-5-5-x-5---5-5-5-|-5-5-x-5---5-5-5-|

|-----------------|-----------------|-----------------|
|-----------------|-----------------|-----------------|
|-----------------|-----------------|-----------------|
|-5-5-x-5---5-5-5-|-5-5-x-5---5-5-5-|-5-5-x-5---5-5-5-|

|-----------------|-----------------|
|-3-3-3-3-3-3-3-3-|-5-5-5-5-5-5-5-5-|
|-----------------|-----------------|
|-----------------|-----------------|


Chorus:

|-----------------|-----------------|-----------------|-----------------|
|-----------------|-----------------|-3-3-3-3-3-3-3-3-|-5-5-5-5-5-5-5-5-|
|-----------------|-----------------|-----------------|-----------------|
|-3-3-3-3-3-3-3-3-|-5-5-5-5-5-5-5-5-|-----------------|-----------------|

|-----------------|-----------------|-----------------|
|-----------------|-----------------|-3-3-3-3-3-3-3-3-|
|-----------------|-----------------|-----------------|
|-3-3-3-3-3-3-3-3-|-5-5-5-5-5-5-5-5-|-----------------|

|-----------------|-----------------|-----------------|
|-5-5-5-5-x-3-3-3-|-5-5-5-5-x-3-3-3-|-5-5-5-5-x-3-3-3-|
|-----------------|-----------------|-----------------|
|-----------------|-----------------|-----------------|
Comments