Bamboo - Masaya Chords & Tabs

 

Masaya Chords & Tabs

Bamboo Chords & Tabs

Version: 2 Type: Tab 0 ratings
1 star 2 stars 3 stars 4 stars 5 stars
comments

Masaya Tab

  SUBMITTED BY: JEFFREY FORBES

  KUNG MAY MALI EMAIL ME (PSYCHOLOVE23@YAHOO.COM)

BRIDGE:
[ Tab from: http://www.guitartabs.cc/tabs/b/bamboo/masaya_tab_ver_2.html ]
  ------------------------------------|
  ---11---33---77s9--9s10--7----------|
  ------------------------------------|
  ---22---44---88s10-10s11-8----------|
  ---33---55---88s11-11s12-9----------|
  ------------------------------------|

  ------------------------------------|
  ---11---33---11---33----------------|
  ------------------------------------|
  ------------------------------------|
  ---22---22---22---44----------------|
  ---33---33---33---55----------------|

yun lang!
Comments