Bamboo - Masaya Solo Chords & Tabs

 

Masaya Solo Chords & Tabs

Bamboo Chords & Tabs

Version: 1 Type: Tab 3 ratings
1 star 2 stars 3 stars 4 stars 5 stars
comments

Masaya Solo Tab

(srtuming)
e|------------------------------------------------|
B|------------------------------------------------|
G|------------------------------------------------|  (2x)
D|------------------7-9-11-11-11-11-11---5s4s5----|
A|---2-2-2-4-4-4-5--5-7-9--9--9--9--9----3s2s3----|
D|---0-0-0-2-2-2-3--------------------------------|


(plucking)
e|--------------------------|
B|--------------------------|
G|--------------------------|
D|---3p2--------------------|
A|-------3p2----------------|
D|-----------3p2-0~~--------|

[ Tab from: http://www.guitartabs.cc/tabs/b/bamboo/masaya_solo_tab.html ]
Comments