Bamboo - Masaya Chords & Tabs

 

Masaya Chords & Tabs

Bamboo Chords & Tabs

Version: 2 Type: Bass Tab 0 ratings
1 star 2 stars 3 stars 4 stars 5 stars
comments

Masaya Bass Tab

Masaya by Bamboo

intro:

|----------------|----------------|-------------4h5|4---------------|
|----------------|----------------|----------------|---5--7---------|
|------5---------|3-----7-----5---|----------------|----------------|
|3------------3h5|----------------|5-----5---------|----------------|

|----------------|----------------|----------------|----------------|
|----------------|----------------|----------------|----------------|
|------5---------|3-----7---------|----------------|----------------|
|3------------3h5|-------------2h3|5-----5---------|5-----5---------|

verse:

|----------------|----------------|----------------|----------------|
|----------------|----------------|----------------|----------------|
|----------------|3--3--3--------3|-------------3--|3--3------------|
|3--3--3------3h5|----------------|5--5--5--0------|----------------|

|----------------|----------------|----------------|----------------|
|----------------|----------------|----------------|----------------|
|----------------|3--3--3--------3|-------------3--|3--3------------|
|3--3--3------3h5|----------------|5--5--5--0------|----------------|

|----------------|----------------|----------------|----------------|
|----------------|----------------|----------------|----------------|
|----------------|3--3--3--------3|-------------3--|3----(pause)----|
|3--3--3------3h5|----------------|5--5--5--0------|----------------|


chorus:

|----------------|----------------|----------------|----------------|
|----------------|--------5-------|----------------|----------------|
|----------0-2-2-|2-3s5-7---5-7---|----------------|0-3-3-3-3-3-3---|
|3-3-3-5-5-------|-------------5--|5--5--5--5--5---|----------------|

|----------------|----------------|----------------|----------------|
|----------------|--------5-------|----------------|----------------|
|----------0-2-2-|2-3s5-7---5-7---|----------------|0-3---(pause)---|
|3-3-3-5-5-------|-------------5--|5--5--5--5--5---|----------------|

[ nilagyan ko lng ng arte ung chorus nyan... kung gus2 nyu ibahin ok lng ]

post-chorus:

|----------------|-----------4-5-7|-4h5-4----------|----------------|
|----------------|----------------|-------5-7------|7-7-------7-7---|
|------5---------|3h5s3-----------|----------------|----------------|
|3------------3h5|----------------|----------------|----------------|

|----------------|-----4h5-4------|----------------|----------------|
|----------------|-----------5-7--|----------------|----------------|
|------------4-3-|----------------|---------------3|-3--3-----------|
|3-----3h5-------|5---------------|-5--5--5--5h7--|----------------|


verse 2:
[ Tab from: http://www.guitartabs.cc/tabs/b/bamboo/masaya_btab_ver_2.html ]
|----------------|----------------|----------------|----------------|
|----------------|----------------|----------------|----------------|
|----------------|3--3--3-------3-|--------0-3-3-0-|3------3--------|
|3--3--3------3h5|----------------|5-5-5-----------|----------------|

|----------------|----------------|----------------|----------------|
|----------------|----------------|----------------|----------------|
|----------------|3--3--3-------3-|--------0-3-3-0-|3------3--------|
|3--3--3------3h5|----------------|5-5-5-----------|----------------|

|----------------|----------------|----------------|----------------|
|----------------|----------------|----------------|----------------|
|------2--------0|3--5--7-------7-|----------0--3-3|-3--3-(pro-long)|
|3--5------------|----------------|5--3--5---------|----------------|

|----------------|----------------|----------------|----------------|
|----------------|----------------|----------------|----------------|
|------2---------|3--5--7-------7-|-------------(pause)-------------|
|3--5---------3h5|----------------|5---------------|----------------|

chorus:

|----------------|----------------|----------------|----------------|
|----------------|--------5-------|----------------|----------------|
|----------0-2-2-|2-3s5-7---5-7---|----------------|0-3-3-3-3-3-3---|
|3-3-3-5-5-------|-------------5--|5--5--5--5--5---|----------------|

|----------------|----------------|----------------|----------------|
|----------------|--------5-------|----------------|----------------|
|----------0-2-2-|2-3s5-7---5-7---|----------------|0-3-3-3-3-3-3-3-|
|3-3-3-5-5-------|-------------5--|5--5--5--5--5---|----------------|

|----------------|
|0-3-3-3-3-------|
|----------------|
|----------------|

bridge:

|----------------|----------------|----------------|----------------|
|----------------|-----4-5-------|----------------|----------------|
|----------------|-5-7--5------7-3|3-0-3-3-0-3--3-0|3-5-3-2h3-------|
|0-0-0-2-2-2-3-3-|----------------|----------------|---------3------|

|----------------|----------------|----------------|9109------------|
|----------------|----4--5--------|----------------|----109---------|
|----------------|-5-7--5------7-3|-3-0-3-3-0-3-0--|-------109------|
|0-0-0-2-2-2-3-3-|----------------|----------------|----------108---|


chorus:


|----------------|----------------|----------------|----------------|
|----------------|--------5-------|----------------|----------------|
|----------0-2-2-|2-3s5-7---5-7---|----------------|0-3-3-3-3-3-3---|
|3-3-3-5-5-------|-------------5--|5--5--5--5--5---|----------------|


|----------------|----------------|----------------|----------------|
|----------------|--------5-------|----------------|----------------|
|----------0-2-2-|2-3s5-7---5-7---|----------------|3--3--3-PROLONG
|3-3-3-5-5-------|-------------5--|5--5--5--5--5---|----------------|




kung may mali ako or nakalimutan isulat email me: blackniggaz05@yahoo.com

pls rate pls lng...
Comments