Bamboo - Hudas Chords & Tabs

 

Hudas Chords & Tabs

Bamboo Chords & Tabs

Version: 2 Type: Tab 0 ratings
1 star 2 stars 3 stars 4 stars 5 stars
comments

Hudas Tab

   
SONG NAME: HUDAS
BAND NAME: BAMBOO
TABBED BY: jaz r. mendros

    For all "HUDAS" d'yan these song is for you...

INTRO
    v ^ v ^ v ^  v ^ v ^ v ^
e|--0-0-0-0-0-0--0-0-0-0-0-0----|
b|--0-0-0-0-0-0--1-1-1-1-1-1----|
g|--0-0-0-0-0-0--0-0-0-0-0-0----| 2x
d|--2-2-2-2-2-2--2-2-2-2-2-2----|
a|--2---------2--3---------3----|
E|--0---------------------------|

VERSE
    V ^ v ^ v ^  v ^ v ^ v ^ 
e|--0-0-0-0-0-0--0-0-0-0-0-0----|
b|--0-0-0-0-0-0--1-1-1-1-1-1----|
g|--0-0-0-0-0-0--0-0-0-0-0-0----| 
d|--2-2-2-2-2-2--2-2-2-2-2-2----|
a|--2---------2--3---------3----|
E|--0---------------------------|
    Bat sila'y...

e|--0-0--0-0--0-0-0-0-0-0-0-0---|
b|--1-1--3-3--1-1-1-1-1-1-1-1---|
g|--2-2--2-2--0-0-0-0-0-0-0-0---| 2X (the strumming is change but the same 
d|--2-2--0-0--2-2-2-2-2-2-2-2---| 		chord progression)
a|--0-0--2-2--3-3-3-3-3-3-3-3---|
E|------------------------------|
    Bakit sa lupa...

PRE-CHORUS
e|--3-3-3-3-3-3--3-3-3-3-3-3--0-0-------0-0-0-0-0-0-0-0---|
b|--3-3-3-3-3-3--3-3-3-3-3-3--1-1--3-3--1-1-1-1-1-1-1-1---|
g|--0-0-0-0-0-0--0-0-0-0-0-0--2-2--2-2--0-0-0-0-0-0-0-0---|
d|--2-2-2-2-2-2--0-0-0-0-0-0--2-2--0-0--2-2-2-2-2-2-2-2---|
a|--3-3-3-3-3-3--2-2-2-2-2-2--0-0--2-2--3-3-3-3-3-3-3-3---|
E|---------------3-3-3-3-3-3------------------------------|
    O di kaya'y...
[ Tab from: http://www.guitartabs.cc/tabs/b/bamboo/hudas_tab_ver_2.html ]
CHORUS
e|------------------|
b|------------------|
g|-----7------------| 4X
d|--5--7--7--10-----|
a|--5--5--7--10-----|
E|--3-----5--9------|
    Tina tawanan...

REPEAT INTRO (CHANGE STRUMMING)
REPEAT VERSE (CHANGE STRUMMING)
REPEAT PRE-CHORUS
REPEAT CHORUS

BRIDGE FOR LEAD GUITAR 
e|------------------------------------------------|
b|------------------------------------------------|
g|--/9-12-14-14S16-14-16-14-14h16----12-14-16-14--|
d|--------------------------------14--------------|
a|------------------------------------------------|
E|------------------------------------------------|
    Doo... doo...

e|-------------------------------------------------------|
b|-------------------------------------------------------|
g|--9-12-14-14S16-14-16-14-14h16----12h14----9-12-14-12--|
d|-------------------------------14-------14-------------|
a|-------------------------------------------------------|
E|-------------------------------------------------------|

BRIDGE FOR RHYTHM GUITAR 
   Em     C
e|--0--|--0--|
b|--0--|--1--|
g|--0--|--0--| 4X (JUST LISTEN TO THE CD FOR THE STRUMMING)
d|--2--|--2--|
a|--2--|--3--|
E|--0--|-----|

REPEAT PRE-CHORUS

CHORUS
e|------------------|
b|------------------|
g|-----7------------| 3X
d|--5--7--7--10-----|
a|--5--5--7--10-----|
E|--3-----5--9------|

e|-----------0------|
b|-----------1------|
g|-----7-----0------| 
d|--5--7--7---------|
a|--5--5--7---------|
E|--3-----5---------|
 
END...!!!

For comments and suggestion just e-mail me at jaz_punkdemon333 
Sa mga surigaonon nga banda na walay guitarist or vocalist available ko...
Comments