Bamboo - Hallelujah Chords & Tabs

 

Hallelujah Chords & Tabs

Bamboo Chords & Tabs

Version: 3 Type: Tab 0 ratings
1 star 2 stars 3 stars 4 stars 5 stars
comments

Hallelujah Tab

   
Tabbed by:JONNEL CULUBONG, ViVa St.RitA_\m/
Email:skull_for_dead@yahoo.com
Tuning:standard

Intro:
[repeat 4x]
e|----------3------------------------------------------------------------|
B|-------1---------------------------------------------------------------|
G|----2------------------------------------------------------------------|
D|-----------------------------------------------------------------------|
A|-----------------------------------------------------------------------|
E|-----------------------------------------------------------------------|


e|-----------------------------------------------------------------------|
B|-----------------------------------------------------------------------|
G|-----------------------------------------------------------------------|
D|-----------------------------------------------------------------------|
A|--------------8-8-8--10-8-777------------------------------------------|
E|-----5-5-555-------------------8-8--89---7-7--777----------------------|


Verse 1: ang alam ko lng eh ung pag katap0s nung "Kalimutan ang lahat, lumipad, lumayo, oh"

e|----------3------------------------------------------------------------|
B|-------1---------------------------------------------------------------|
G|----2------------------------------------------------------------------|
D|-----------------------------------------------------------------------|
A|-----------------------------------------------------------------------|
E|-----------------------------------------------------------------------|

with base yan...

Verse 2:(PALM MUTE) PLAY 4 TIMES 
e|-----------------------------------------------------------------------|
B|-----------------------------------------------------------------------|
G|-----------------------------------------------------------------------|
D|-----------------------------------------------------------------------|
A|--------------8-8-8--10-8-777------------------------------------------|
E|-----5-5-555-------------------8-8--89---7-7--777----------------------|


Pre-Chorus:
  "May Kasama Ka Kapatid"
e|------------------1----------------------------------------------------|
B|------------------1----------------------------------------------------|
G|------------------2---------5------------------------------------------|
D|--7-(let it ring)-3-(strum)-5---5--------------------------------------|
A|--7---------------3---------3---5--------------------------------------|
E|--5---------------1-------------3--------------------------------------|
[ Tab from: http://www.guitartabs.cc/tabs/b/bamboo/hallelujah_tab_ver_3.html ]
    "Hanggat ako'y humihinga"
e|------------------------------------------------------------------------|
B|------------------------------------------------------------------------|
G|---7--------------------------------------------------------------------|
D|---7-12x(palm-muted down-stroke)------3---------------------------------|
A|---5----------------------------------3-12x-(palm-muted down-stroke)----|
E|--------------------------------------1---------------------------------|


Chorus:
e|------------------------------------------------------------------------|
B|------------------------------------------------------------------------|
G|------------5-----------------------------------------------------------|
D|--7----3----5----5------------------------------------------------------|
A|--7----3----3----5------------------------------------------------------|
E|--5----1---------3------------------------------------------------------|

ito na ung sa rap ni Bamboo ung lead dun....
e|------------------------------------------------------------------------|
B|------------------------------------------------------------------------|
G|---------5---55h7-5-------5h7-5------5----------------------------------|
D|-----------7------------7---------7-------------------------------------|
A|------------------------------------------------------------------------|
E|------------------------------------------------------------------------|

Verse 3:  
e|----------3------------------------------------------------------------|
B|-------1-------------2x------------------------------------------------|
G|----2------------------------------------------------------------------|
D|-----------------------------------------------------------------------|
A|-----------------------------------------------------------------------|
E|-----------------------------------------------------------------------|

Ngayong gabi
Ako ang sundalo mo

e|-----------------------------------------------------------------------|
B|-----------------------------------------------------------------------|
G|-------------5---------------------------------------------------------|
D|--7-----3----5---5-----------------------------------------------------|
A|--7-----3----3---5-----------------------------------------------------|
E|--5-----1--------3-----------------------------------------------------|

REPEAT:
Pre-chorus
Chorus

Oops sorry d ko pa tap0s ung lead per0 malapit na.......

| /  slide up
| \  slide down
| h  hammer-on
| p  pull-off
| ~  vibrato
| +  harmonic
| x  Mute note

Note: Ei, cnxia na kung d kayo nasayahan sa tab ko 1st tym ko lng ksi \m/
xxxxxxxxxxxxxxxxxxxxxxxxxxxxxxxxxxxxxxxxxxxxxxxxxxxxxxxxxxxxxxxxxxxxxxxxxxxx
Comments