Bamboo - Hallelujah Chords & Tabs

 

Hallelujah Chords & Tabs

Bamboo Chords & Tabs

Version: 2 Type: Tab 0 ratings
1 star 2 stars 3 stars 4 stars 5 stars
comments

Hallelujah Tab

   
-------------------------------------------------------------------------------
			     Hallelujah! - Bamboo
--------------------------------------------------------------------------------|
Tabbed by:MARC LE-VIR V. SARMIENTO, BSEE-3B 2004-2005---------------------------| TUP-MANILA
Email:MARCLEVIRSARMIENTO2003@YAHOO.COM

       sensya na kau if hindi pa complete to kze wala pa namang cd nito, sa june4 pa..
but i could nail this song kung may cd lang ako...i juz want 2b the first to tab this
semi-accurate hehehe...check also may tab for typacast

Tuning:standard

intro
   (over some killer bass and drum lines)
e|-----------3-----------------------------------------------------------|
B|--------1------(repeat for quite some time then below...)--------------|
G|-----2-----------------------------------------------------------------|
D|-----------------------------------------------------------------------|
A|-----------------------------------------------------------------------|
E|-----------------------------------------------------------------------|
 im not sure bout this one coz the cd is still not out so itz more
 from memory coz i heard it twice sa radio nd twice 2day sa tv kze 2day
lang na-out ung vid...mdyo sinunod ko lang ung chord progression
[ Tab from: http://www.guitartabs.cc/tabs/b/bamboo/hallelujah_tab_ver_2.html ]
e|---------------------------------------------------------------------------|
B|---------------------------------------------------------------------------|
G|---------------------------------------------------------------------------|
D|--------------2-3x-3x-333-53-2x--------------------------------------------|
A|------------3------------------3x-3x-35x-5x-55-----------------------------|
E|---5x-5x-5x----------------------------------------------------------------|

verse(coming up...)
pre chorus
  "may kasama ka kapatid..."
e|----------------------------------------------------------------------|
B|----------------------------------------------------------------------|
G|--2---------------2---------5-----------------------------------------|
D|--3-(let it ring)-3-(strum)-5-(strum)-5x5x----------------------------|
A|--3---------------3---------3---------5x5x----------------------------|
E|--1---------------1-------------------3x3x----------------------------|

    "hanggat akoy...."
e|---------------------------------------------------------------------------|
B|---------------------------------------------------------------------------|
G|---7-----------------------------------------------------------------------|
D|---7-(fast palm-muted down-strokes)--3-------------------------------------|
A|---5---------------------------------3--(same here}------------------------|
E|-------------------------------------1-------------------------------------|


chorus(strum)
e|--------------------------------------------------------------------|
B|--------------------------------------------------------------------|
G|--5----2----5----4--------------------------------------------------|
D|--7----3----5----5--------------------------------------------------|
A|--7----3----3----5--------------------------------------------------|
E|--5----1---------3--------------------------------------------------|

| /  slide up
| \  slide down
| h  hammer-on
| p  pull-off
| ~  vibrato
| +  harmonic
| x  Mute note
===============================================================================
Comments