Bamboo - Fu Chords & Tabs

 

Fu Chords & Tabs

Bamboo Chords & Tabs

Version: 1 Type: Tab 0 ratings
1 star 2 stars 3 stars 4 stars 5 stars
comments

Fu Tab

   
Artist: Bamboo
Album: Light Peace Love
Tabbed By: Krister Jay Martin Ga˝gan
Band: GODSONS
      iSABELA

Intro: E5-B5-F5-Em-F#-G5-D5 (2x)


Em-B-F-Em

Why do you hate him
Why did you make him leave
There's nothing wrong with him

Em-B-F-Em

Why do you hate him
you want him crucified
Is it the way he looks
or the way he speaks his mind

Refrain: D-F

Never hear this song playing on the radio

Chorus: C-G-F

Ohh... there's nothing wrong with him
But it's you and your friends

D-F

Never hear this song playing on the radio

Em-B-F-Em

All you ever did was talk about her
She's done what she had to do
Having to raise two kids without a father

Em-B-F-Em
[ Tab from: http://www.guitartabs.cc/tabs/b/bamboo/fu_tab.html ]
You just stood by idly watched her suffer
You think you're something special
Boy you blew it! This conversation's over...

D-F

Never hear this song playing on the radio

[Repeat Chorus]
[ADLIB]

E5-D5-G5
E5-F#-G5-D5

Lead
E|----------------------------------------|
B|------3-1----1-3-5-3--------------------|
G|--2-0-----------------------------------|
D|----------------------------------------|
A|----------------------------------------|
E|----------------------------------------|

C5-D5-E5-G5-D5

2ND Lead
E|----------------------------------------|
B|------3-1----1-3-5-8-3------------------|
G|--2-0-----------------------------------|
D|----------------------------------------|
A|----------------------------------------|
E|----------------------------------------|

A5-B5-C5--|F5
C5-D5-E5--|G5
A5-B5-C5--|F5
C5-D5-E5--|G5
F5

[Repeat Chorus]

Godsons
Bass: Krister Jay Martin Ga˝gan
Guitar: Paul Pacquing
Vocals: Kim Nacion
Drums: Mm Hernando
Comments