Bamboo - Children Of The Sun Chords & Tabs

 

Children Of The Sun Chords & Tabs

Bamboo Chords & Tabs

Version: 1 Type: Tab 0 ratings
1 star 2 stars 3 stars 4 stars 5 stars
comments

Children Of The Sun Tab

   
Children of the sun
Bamboo
Light.peace.Love

Tabbed by: Paul Sigua-

Intro
A

e|------------------------------------|
B|------------------------------------|
G|------------------------------------|
D|-------------2-----6--2--4--4---2h4-|4x
A|----------4-----4-------------4-----|
E|-2--4--5----------------------------|
Then

B

1.
e|
B|-------------|
G|-------------|
D|-------------|
A|-4p2---2-----|
E|-----5---5-0-|

2.
e|---------|
B|---------|
G|---------|
D|--4422s4-|
A|--4422s4-|
E|--2200s2-|
     Pm..-

4x then play riff A once then play B again 4x.  4 na beses	yang paulit-ulit.


Verse

e|-----------------------|
B|-5--4-----5--4-----9---|
G|-------6--------6------|
D|-----------------------|
A|-----------------------|
E|-----------------------|

e|-----------------------------|
B|-5--4-----5--4---------------|
G|-------6--------6------------|
D|-------------------s-7-9-12--|
A|-------------------s-7-9-12--|
E|-------------------s-5-7-10--|
Chorus
[ Tab from: http://www.guitartabs.cc/tabs/b/bamboo/children_of_the_sun_tab.html ]
e|-----------------------------------------------------|
B|-----------------------------------------------------|
G|--------------9--------------------------7-----------|
D|-9999999...7777...9--------------9999999-777-7-------|
A|-9999999...7777...7------5-7h5---9999999-777-5-------|
E|-7777777...5555...---5-7-------5-7777777-555---------|
                -Lakasan mo!


Kaya na bahala sa strumming. Lupet nman kyo eh. Timingan nyo na lng..

Then
e|------------------------|
B|------------------------|
G|------------------------|
D|------------------------|
A|------------------------|
E|-5-5-5-5-5-5-5......----|

Naka pm ata toh.. bala kyo..

Repeat Intro B pero 2 times lang

Verse 2

May pedal wah toh. Di ko pa natry toh na may wah. Ala sa bundok nun eh.. pero tingin ko 
nman ung nota. Kung mali, sorry!

e|-----------------------------------------------------|
B|-----------------------------------------------------|
G|-2-2--------2-2---------2-2----------2-2----4h2-4h2--|

e|----------|
B|----------|
G|----------|
D|-s-7-9-12-|
A|-s-7-9-12-|
e|-s-5-7-10-|

Repeat chorus

e|
B|
G|
D|-----------------------------------------------------------------|
A|---------------------------------2-2-2-2-2-2-2-2-----------------|
E|-5-5-5-5-5-5-5-5-4-4-4-4-4-4-4-4-----------------5-5-5-5-5-5-5-5-|
Pm......

Repeat intro b
Then chorus
Then intro a
Comments