Bamboo - As The Music Plays The Band Chords & Tabs

 

As The Music Plays The Band Chords & Tabs

Bamboo Chords & Tabs

Version: 3 Type: Tab 0 ratings
1 star 2 stars 3 stars 4 stars 5 stars
comments

As The Music Plays The Band Tab

   
As The Music Plays The Band by Bamboo

Tabbed by: rajem pradhan
Email add: rajem_pradhan@hotmail.com

intro:   	    F    G
	[note: work on that pedal baby!!]

intro: bass  
E|------------------------------------------------|
B|------------------------------------------------|
G|------------------------------------------------|
D|------------------------------------------------|
A|-------3/5--2---3----3/5--2---3-3---5-5---------|
E|----1-------------1-----------------------------|

		note: [do intro 2x]

verse1:
F             G  
On the radio, DJ plays our song
F               G 
Thank you, sir, for the music
F
Listen night and day
G
To all the bands they play
F            G
Great music, great music
F (pause)	     G
1 2 3 4 5 6 7 8 9 10 
F
back in 1993
    G                     G
I knew what I would be

[ Tab from: http://www.guitartabs.cc/tabs/b/bamboo/as_the_music_plays_the_band_tab_ver_3.html ]
chorus:
                          F      G
As the music plays our band
                          F      G
And the songs play the music
                          F      G
As the music plays our band
                          F      G
And the songs play the music

here comes the solo...
E|------------------------------------------------|
B|------------------------------------------------|
G|------------------------------------------------|
D|-----10-9-10-9-10-9-10-9---10-9-10-9-10/12-12---|
A|------------------------------------------------|
E|------------------------------------------------|

E|--------------------------------------------------------|
B|--------------------------------------------------------|
G|--------------------------------------------------------|
D|-----10-9-10-9-10-9-10-9--------------------------------|
A|---------------------------10h12-10---------------------|
E|-------------------------------------10h12-10-8---------|

verse2:

[repeat pattern in verse1]
 
I wrote this song for all of you out there
With its catchy melody and simple harmonies
Let the music take control
Let the music take your soul
Everybody sing this song with me


[repeat chorus]

and that's it!actually first time kong mag post ng tab dito!hehehe!
and ifyou have questions or any violent reactions regarding sa song na to,
just mail me rajem_pradhan@hotmail.com
honey i love you!hehehe!
Comments