Bamboo - Alpha Beta Omega Chords & Tabs

 

Alpha Beta Omega Chords & Tabs

Bamboo Chords & Tabs

Version: 1 Type: Tab 0 ratings
1 star 2 stars 3 stars 4 stars 5 stars
comments

Alpha Beta Omega Tab

   
Song: Aplha BEta Omega
Artist: Bamboo
Album: Hallelujah
Tabbed: Aug. 24 2005
Transcribe by: Erwin Serrano Quezon City/Pangasinan
                 (winserrano@yahoo.com)


MGA DUDES!! TRY NYU!! NAPAKASIMPLE TONG KANTANG To pero ang ganda
!! TRY NYU! D KO ALAM KONG TAMA TO PERO ALAM KO OK N RIN!! MAS MAGANDA KuNG MAY RECORD 
NG KANTANG TO!!!!

Intro: Ab, E

Guitar 1

E|--------2--------2-------2-----4--2-----2-----2-------2-----------------|
B|----------0--------0-------0--------------0-----0-------0---------------|
G|------------------------------------------------------------------------|
D|--------------2-----------------------------2---------------------------|
A|------------------------------------------------------------------------|
E|-----4----------------4---------------4-------------4-------------------|

Guitar 2
E|------------------------------------------------------------------------|
B|-4\6--------------------------------------------------------------------|
G|------------------------------------------------------------------------|

Guitar 1
E|--------2--------2-------2-----4--2-----2-----2-------2-----------------|
B|----------0--------0-------0--------------0-----0-------0---------------|
G|------------------------------------------------------------------------|
D|--------------2-----------------------------2---------------------------|
A|------------------------------------------------------------------------|
E|-----4----------------4---------------4-------------4-------------------|

Guitar 2
E|------------------------------------------------------------------------|
B|-4\6pull-4--------------------------------------------------------------|
G|------------------------------------------------------------------------|

Guitar 1
E|--------2--------2-------2-----4--2-----2-----2-------2-----------------|
B|----------0--------0-------0--------------0-----0-------0---------------|
G|------------------------------------------------------------------------|
D|--------------2-----------------------------2---------------------------|
A|------------------------------------------------------------------------|
E|-----4----------------4---------------4-------------4-------------------|

Guitar 2
E|------------------------------------------------------------------------|
B|------------------------------------------------------------------------|
G|------------------------------------------------------------------------|
D|-----------------------------------6\7----------------------------------|

Verse 1 (do tab below conteniouslly except on chorus)

Guitar 1
E|--------2--------2-------2-----4--2-----2-----2-------2-----------------|
B|----------0--------0-------0--------------0-----0-------0---------------|
G|------------------------------------------------------------------------|
D|--------------2-----------------------------2---------------------------|
A|------------------------------------------------------------------------|
E|-----4----------------4---------------4-------------4-------------------|



E|----------------------------------------------------------------------|
B|------------------7\9-7----6\7----------------------------------------|
G|------------------------4---------------------------------------------|
D|----------------------------------------------------------------------|

E|----------------------------------------------------------------------|
B|-------------------3\4------------------------------------------------|
G|----------------------------------------------------------------------|
D|----------------------------------------------------------------------|
[ Tab from: http://www.guitartabs.cc/tabs/b/bamboo/alpha_beta_omega_tab.html ]
E|----------------------------------------------------------------------|
B|----------------------------------------------------------------------|
G|----------------------------------6h4h6-------------------------------|
D|----------------------------------------------------------------------|
 
E|----------------------------------------------------------------------|
B|-------7\9-7---6\7----------------------------------------------------|
G|-------------4--------------------------------------------------------|
D|----------------------------------------------------------------------|
 
E|----------------------------------------------------------------------|
B|-------------------7\9------------------------------------------------|
G|----------------------------------------------------------------------|
D|----------------------------------------------------------------------|

E|----------------------------------------------------------------------|
B|----------------------------------------------------------------------|
G|------------------4h6-4-----------------------------------------------|
D|-------------------------4h6------------------------------------------|

Chorus:

E|------------------------------------------------------------------------|
B|------------------------------------------------------------------------|
G|-------6--6----------------8--8-----------------------------------------|
D|-------6--6----------------8--8------6--6-------------------------------|
A|-------4--4----------------6--6------6--6-------------------------------|
E|-------------------------------------4--4-------------------------------|

E|------------------------------------------------------------------------|
B|------------------------------------------------------------------------|
G|---------6--6--------------8--8-----------------------------------------|
D|---------6--6--------------8--8-----------------------------------------|
A|---------4--4--------------6--6-----------------------------------------|
E|------------------------------------------------------------------------|

E|-------------------------------------------------------------------------|
B|-------------------------------------------------------------------------|
G|-------------------------------------------------------------------------|
D|--------6--6----6--------------------------------------------------------|
A|--------6--6----6--------------------------------------------------------|
E|--------4--4----4--------------------------------------------------------|

Verse 2 (do tab below conteniouslly except on chorus)
Guitar 1
E|--------2--------2-------2-----4--2-----2-----2-------2-----------------|
B|----------0--------0-------0--------------0-----0-------0---------------|
G|------------------------------------------------------------------------|
D|--------------2-----------------------------2---------------------------|
A|------------------------------------------------------------------------|
E|-----4----------------4---------------4-------------4-------------------|

Repeat Chotus 2x:

Verse 3 (do tab below conteniouslly except on third Stanza)
Guitar 1
E|--------2--------2-------2-----4--2-----2-----2-------2-----------------|
B|----------0--------0-------0--------------0-----0-------0---------------|
G|------------------------------------------------------------------------|
D|--------------2-----------------------------2---------------------------|
A|------------------------------------------------------------------------|
E|-----4----------------4---------------4-------------4-------------------|

E|----------------------------------------------------------------------|
B|-------------------------------3\4--3\4-------------------------------|
G|-------------------------------3\4--3\4-------------------------------|
D|----------------------------------------------------------------------|

   (do this tab conteniouslly except on chorus)
E|----------------------------------------------------------------------|
B|-----------4-7pause---------------4-7pause--------------4-7pause------|
G|--4h6--4h6-4-4-------4h6--4h6-4-4----------4h6--4h6-4-4---------------|
D|----------------------------------------------------------------------|
Comments