Balsamo - El Vago Chords & Tabs

 

El Vago Chords & Tabs

Balsamo Chords & Tabs

Version: 1 Type: Tab 0 ratings
1 star 2 stars 3 stars 4 stars 5 stars
comments

El Vago Tab

   
El vago
by Balsamo

intro/verse (palm muted)
A C D E

1st chorus
B D (x2)
silence

back to verse

2nd chorus
B D (x2)
then G(X)
silence

Solo (x2)

E|-10p12p10-----------------10p12p10----------------------|
B|----------12-10----10-12-----------12-10--10p12p10------|
G|----------------12---------------------------------12---|
D|--------------------------------------------------------|
A|--------------------------------------------------------|
E|--------------------------------------------------------|

E|-10p12p10-----------------10----14p12p10---14p12p10-----|
B|----------12-10----10-12--------------------------------|
G|----------------12--------------------------------------|
D|--------------------------------------------------------|
A|--------------------------------------------------------|
E|--------------------------------------------------------|
[ Tab from: http://www.guitartabs.cc/tabs/b/balsamo/el_vago_tab.html ]
E|-14p12p10---14p12p10--14p12p10---14p12p10---------------|
B|--------------------------------------------------------|
G|--------------------------------------------------------|
D|--------------------------------------------------------|
A|--------------------------------------------------------|
E|--------------------------------------------------------|

alt chorus
B D

break (distortion)
A C D E

end in A

lyrics

En la camioneta del "Espuma"
vive un vago
se alimenta de ping?inos y papitas
muy de vez en cuando

Duerme bajo l?minas de dibujo
y compendios
que radican ah?
desde hace mas de un a?o

Piensa, ?D?nde dormir??
Piensa, ?D?nde su cuerpo caer??

Sandwiches de pan bimbo
el se comer?
y el uniforme del "Espuma"
el se lo pondr?

El aire del quemacocos
el respirar?
y el forro de la extra
ser? lo que lo cobijar?

Piensa, ?D?nde Dormir??
Piensa, ?D?nde su cuerpo caer??
Si vende su ranfla

Si lo ves en la calle
le preguntaras su nombre
y el solo responder?
yo me llamo:

"El vago" (x4)
Comments