Balance Of Silence - Design Chords & Tabs

 

Design Chords & Tabs

Balance Of Silence Chords & Tabs

Version: 1 Type: Tab

Design Tab

design - bos - intro



GUITAR 1+2

E:---------------------------------|------------------------------------|
B:---------------------------------|------------------------------------|
G:---------------7---------------9-|---------------10-----12---14---15\-|
D:-0-000-0-0-0-----0-000-0-0-0-----|-0-000-0-0-0------0-0----0----0-----|
A:-0-000-0-0-0-5-5-0-000-0-0-0-7-7-|-0-000-0-0-0-8-8--0-0-10-0-12-0-13\-|
D:-0-000-0-0-0-----0-000-0-0-0-----|-0-000-0-0-0------0-0----0----0-----|
   . ... . . .     . ... . . .       . ... . . .      . .    .    .


GUITAR 1
[ Tab from: http://www.guitartabs.cc/tabs/b/balance_of_silence/design_tab.html ]
E:-----------------------------------|-----------------------------------|
B:-----------------------------------|-----------------------------------|
G:----------------------------7------|----------------------7--------9~--|
D:-----------7------------------8-10-|-----------7--------------10-------|
A:-------------8-10------------------|-------------8-10------------------|
D:-8-888-8-8--------8-888-8-8--------|-8-888-8-8--------8-8---8----8-----|
   . ... . .        . ... . .          . ... . .        . .   .    .


GUITAR 2

E:-----------------------------------|-----------------------------------|
B:-----------------------------------|-----------------------------------|
G:-9~---------------10~--------------|-9~---------------12~--------------|
D:-----------------------------------|-----------------------------------|
A:-7~---------------8~---------------|-7~---------------10~--------------|
D:-----------------------------------|-----------------------------------|




Enjoy