Baker - Mystery Man Chords & Tabs

 

Mystery Man Chords & Tabs

Baker Chords & Tabs

Version: 1 Type: Tab 0 ratings
1 star 2 stars 3 stars 4 stars 5 stars
comments

Mystery Man Tab

   
INTRO:

~Clean tone~
       D        A        Em      G
e|---------2---------------------3--------|
B|-------3---3------2--------0------------|
G|-----2----------2---2----2--------------|     x4
D|-----0--------2--------2----------------|
A|--------------0----------------2--------|
E|-----------------------0-------3--------|

~Softly Distorted~
Come in after 1 bar:
       D        A        Em      G5
e|-----2--------0--------0-------3--------|
B|-------3---3----2---2----0-----3--------|
G|---------2--------2--------0------------|     x3
D|----------------------------------------|
A|-------------------------------x--------|
E|-------------------------------3--------|

~Clean Tone~
Verse 1:

    D          A         Em          G
	Once a year this time comes around
    D        A      Em       G
	Everybody's happy
      D	              A      Em       G
'Bout him ('bout him)
    D        A      Em       G
        Everybody's talking about
     D                A      Em       G
that man (that's him)
    D        A
        That mystery

~Semi Distorted~
Chorus 1:

        Em      G
        Mystery man
    D        A
        That mystery
	Em      G
        Mystery man

Chorus 2:
[ Tab from: http://www.guitartabs.cc/tabs/b/baker/mystery_man_tab.html ]
    D       A             Em            G
        Not everyone will get what they want
    D       A             Em            G
        not everyone will get what they need
    D       A             Em            G
        Not everyone will get what they want
    D       A             Em            G
        not everyone will get what they need

~Clean Tone~
Verse 2:

    D            A      Em              G
        Ain't we silly, hanging out our cotton so-cks
    D            A      Em                G
        Ain't we silly, leaving out mince pies for him
    D            A      Em              G
        Ain't he silly, coming down our sooty chimneys
    D                       A                   Em               G
        Ain't we, ain't we, ain't we, ain't we, ain't we, all so very silly

Link:

       D        A        Em      G
e|---------2---------------------3--------|
B|-------3---3------2--------0------------|
G|-----2----------2---2----2--------------|     x2
D|-----0--------2--------2----------------|
A|--------------0----------------2--------|
E|-----------------------0-------3--------|


End:
        C   Am7   G/B   G5

~Heavy Distortion~
Outro:

D5     A5  C5 B5 A5 G5__________________ G5%

% = Short note

STRUCTURE

Intro
Verse 1
Chorus 1
Chorus 2
Verse 2
Chorus 1
Chorus 2
Chorus 2 (with end)
Outro
Comments