Baha Men - Who Let The Dogs Out Chords & Tabs

 

Who Let The Dogs Out Chords & Tabs

Baha Men Chords & Tabs

Version: 1 Type: Bass Tab 0 ratings
1 star 2 stars 3 stars 4 stars 5 stars
comments

Who Let The Dogs Out Bass Tab

   
Artist : Baha Men
Song: Who let the Dogs out
Transcribed by : Jordan G
Email: blazer_525@hotmail.com
Standard tuning ebGDAE
Email me with your question and comments. Also, i have a recording 
of me playing this if you need help

Legend
v = vibrato
h = hammer on
p = pulloff

Intro:
-----------------------------------
-----------------------------------
----R-E-S-T------------------------
-----------------------------------

Riff (A)
-----------------------------------|-------------------------
--------3---1----3-3p1h3-----------|------3--1----3---3------
----1------------------------------|---1---------------------
-----------------------------------|-------------------------

(A) Variation
-----------------------------------
-------3-----1---------------------
--1--------------------------------
-----------------------------------

Riff (B)
-----------------------------------
---------------3-3-----1---3-------
---1-1-----------------------------
-----------------------------------
[ Tab from: http://www.guitartabs.cc/tabs/b/baha_men/who_let_the_dogs_out_btab.html ]
(B) Variation
-----------------------------------
-------------3-3-------------------
----1-1----------------------------
-----------------------------------

Interlude 1
-----------------------------------
----3---1---0----------------------
----------------3---1vvv-----------
-----------------------------------

Riff (C)
---------------------------------------------
----------3--1--0---------------------3------
--1---1-------------3---------1--------------
---------------------------------------------

2nd Interlude
-----------------------------------
------3----1----0------------------
--------------------3--------------
-----------------------------------

Ending
-----------------------------------
-----------------------------------
----1---1--1---1---1---------------
-----------------------------------


Order of Playing:

-Intro
-Riff (A)         X2
-(A) variation
-Riff (B)         X2
-(B) Variation
-Interlude 1
-Riff (C)         X3
-2nd Interlude
-Ending

There you go! The rhythm is kinda crazy, but a really easy song. 
It's really hard to hear on the song though. Good luck.


Comments