Badly Drawn Boy - Shining Chords & Tabs

 

Shining Chords & Tabs

Badly Drawn Boy Chords & Tabs

Version: 1 Type: Tab 0 ratings
1 star 2 stars 3 stars 4 stars 5 stars
comments

Shining Tab

#----------------------------------PLEASE NOTE--------------------------------#
#This file is the author's own work and represents their interpretation of the#
#song. You may only use this file for private study, scholarship, or research.#
#-----------------------------------------------------------------------------#
#-- File created with Instab - http://www.pconline.com/~smcarey/instab.html --#
#-----------------------------------------------------------------------------#

Author/Artist: badly drawn boy
Title: the shining
Album: hour of bewilderbeast
Transcribed by: david wagner
Email: dwwagner@mail.presby.edu
[ Tab from: http://www.guitartabs.cc/tabs/b/badly_drawn_boy/shining_tab.html ]
------------------------------------------------------------------------------
------------------------------------------------------------------------------
-------------------1----------------------------------------------------------
--------2--------2---2--------------------------------------------------------
------2---2---0---------------------------------------------------------------
--0---------------------------------------------------------------------------
 (intro tab)                                                                  

---2--0-----3--2-----0--------------------------------------------------------
---0--0-----2--2--2--0--------------------------------------------------------
---1--1-----2--2--2--1--------------------------------------------------------
---2--2-----2--2--2--2--------------------------------------------------------
---2--2---0----------2--------------------------------------------------------
-0----0--------------0--------------------------------------------------------
  "soleil all over me..."                                                     

Comments